Oops, an error
Loading. Please wait.

Shallow Bay bass

version 1
version 1

Whole song

Interactive

2,781 views 6 this week
5 commentsread comments
1 2 3 4 5
x 6
add to favorites
×
Save as Personal and add changes to this tab that will be seen only by you. Learn more ›
×
You can save this tab as Personal to edit and correct it or add notes. All changes will be seen only by you. Learn more »
launch autoscroll
font size
0
reset
guitar tuner
edit
Autoscroll
slow
fast
+/-
esc
set tempo
stop
Author
“Shallow Bay” – Breaking Benjamin
Tuning Db, Ab, Db, Gb

Guitar Intro (Start with this at 00:05)
Gb|-----|
Db|-----|
Ab|-----|
Db|-20~-| x1

Intro/Post Chorus
Gb|----------------------------------|
Db|----------------------------------|
Ab|----------------------------------|
Db|-2520-22222222---2520-222222220~--| x3

Verse
Gb|--------------------------------------|
Db|--------------------------------------|
Ab|----23--------------23----------------|
Db|-25----22222222---25---22222220~------| x2

Pre-Chorus (which is the Intro x2)

Chorus Part 1 x3 
Gb|--------------------------------|
Db|--------------------------------|
Ab|-33333333-----------------------|
Db|---------------5555---2-0-2-0---|

Chorus Part 2 x1
Gb|-------------------|
Db|-------------------|
Ab|-33333333-22222222-|
Db|-------------------|

Intro 
Verse
Pre-Chorus
Chorus Part 1 x3
Chorus Part 2 x2

Bridge
Gb|-----------|
Db|-----------|
Ab|---------3-|
Db|-0-2---0---| x4

Ending
Gb|------------------------------------------|
Db|------------------------------------------|
Ab|-----030-----030-----030-----030-----030--|
Db|-203-----203-----203-----203-----203------|

Gb|---|
Db|---|
Ab|-3~|
Db|---| 

            
            
Suggest correction
Creating personal tab
Creating personal tab
You can edit any tab online and save it as your Personal.

You can edit, replace or remove any tab part or add personal notes – all changes will be seen only by you.

Personal tabs can be accessed anytime from any device, even offline.
Learn more »
comments
print report bad tab
5 comments total. Showing first comments.
0 reply
__Ronnie__ 1,009 May 28, 2007 07:02 AM

Sounds great to me. 5 stars.

0 reply
__Ronnie__ 1,009 May 28, 2007 10:01 AM

Thanks for the 5 stars, I saw your Wish I May tab and voted for it to be accepted and I tried it and it worked. It's worth 5 stars also :)

0 reply
Bass Pants 1,920 May 28, 2007 10:27 AM

thank you, working on a "Dance With the Devil" 4 string tab

guest
You may want to rate the tab now too:
select rating
Wanna post a correction for this tab? Suggest correction