Oops, an error
Loading. Please wait.

Skin Tab

version 4
10,873 views 6 this week
2 commentsread comments
1 2 3 4 5
x 8
add to favorites
launch autoscroll
font size
0
reset
how to read this tab
guitar tuner
×
Best way to learn
"Skin"
Autoscroll
slow
fast
+/-
esc
set tempo
stop
Artist: Breaking Benjamin
Song: Skin
Album: Saturate (2002 Hollywood Records)
Tabbed by: DarkStar11589
http://www.shallowbay.com

Notation:
  h - hammer on 
  p - pull off 
  b - bend string up
  r - release bend
  / - slide up
  \ - slide down
 pm - palm muting
 ah - artificial harmonic
 nh - natural harmonic

Tuning (low to high):  Db, Ab, Db, Gb, Bb, Eb


Intro
    Guitar 1
Eb|-------------------------------|-------------------------------|
Bb|-------------------------------|-------------------------------|
Gb|-------------------------------|-------------------------------|
Dd|-0--0--x-x------x-0--0--x-7----|-5--5--x-x------x-5--5--x-8----|
Ad|-0--0--x-x------x-0--0--x-7----|-5--5--x-x------x-5--5--x-8----|
Dd|-0--0--x-x------x-0--0--x-7----|-5--5--x-x------x-5--5--x-8----|
    *play 3x

Eb|-------------------------------|-------------------------------|
Bb|-------------------------------|-------------------------------|
Gb|-------------------------------|-------------------------------|
Dd|-0--0--x-x------x-0--0--x-7----|-5\----------------------------|
Ad|-0--0--x-x------x-0--0--x-7----|-5\----------------------------|
Dd|-0--0--x-x------x-0--0--x-7----|-5\----------------------------|

    Guitar 2 (00:09)
Eb|-------------------------------|-------------------------------|
Bb|-------------------------------|-----------------6---5---3-----|
Gb|-----7---6---7---9---7---6---7-|-----7---6---7---------------3-|
Dd|-7-----------------------------|-5-----------------------------|
Ad|-------------------------------|-------------------------------|
Dd|-------------------------------|-------------------------------|

Eb|-------------------------------|-------------------------------|
Bb|-------------------------------|-------------------------------|
Gb|-----7---6---7---9---7---6---7-|-------------------------------|
Dd|-7-----------------------------|-5\----------------------------|
Ad|-------------------------------|-------------------------------|
Dd|-------------------------------|-------------------------------|

Verse (00:18)  Guitars 1 & 2   "Well I know..."
Eb|-------------------------------|-------------------------------|
Bb|-------------------------------|-------------------------------|
Gb|-------------------------------|-------------------------------|
Dd|-0---0-----x-0--0--0----x-7----|-5---5-----x-5--5--5----x-8----|
Ad|-0---0-----x-0--0--0----x-7----|-5---5-----x-5--5--5----x-8----|
Dd|-0---0-----x-0--0--0----x-7----|-5---5-----x-5--5--5----x-8----|
    pm          pm pm               pm          pm pm
    *play 3x

Eb|-------------------------------|-------------------------------|
Bb|-------------------------------|-------------------------------|
Gb|-------------------------------|-------------------------------|
Dd|-0---0-----x-0--0--0----x-7----|-5---5---5---5---7---7---7---7-|
Ad|-0---0-----x-0--0--0----x-7----|-5---5---5---5---7---7---7---7-|
Dd|-0---0-----x-0--0--0----x-7----|-5---5---5---5---7---7---7---7-|
    pm          pm pm

Prechorus (00:37)  "Oh, we better..."
    Guitar 1
Eb|-------------------------------|-------------------------------|
Bb|-------------------------------|-------------------------------|
Gb|---------6h7-------------6h7---|---------6h7-------------6h7---|
Dd|-9---9----------7---7----------|-5---5-----------5---5---------|
Ad|-9---9----------7---7----------|-5---5-----------5---5---------|
Dd|-9---9----------7---7----------|-5---5-----------5---5---------|
    *play 2x

    Guitar 2
Eb|-------------------------------|-------------------------------|
Bb|-------------------------------|-------------------------------|
Gb|-------------------------------|-------------------------------|
Dd|-9---9-----------7---7---------|-5---5-----------5---5---------|
Ad|-9---9-----------7---7---------|-5---5-----------5---5---------|
Dd|-9---9-----------7---7---------|-5---5-----------5---5---------|

Eb|-------------------------------|-------------------------------|
Bb|---------5h7-------------5h7---|---------5h7-------------5h7---|
Gb|-------------------------------|-------------------------------|
Dd|-9---9-----------7---7---------|-5---5-----------5---5---------|
Ad|-9---9-----------7---7---------|-5---5-----------5---5---------|
Dd|-9---9-----------7---7---------|-5---5-----------5---5---------|

Chorus (00:45)  "You're covered in..."
    Guitar 1
Eb|-------------------------------|-------------------------------|
Bb|-------------------------------|-------------------------------|
Gb|-------------------------------|-------------------------------|
Dd|-0---0---0---0---7---7---7---7-|-5---5---5---5---5---5---5---5-|
Ad|-0---0---0---0---7---7---7---7-|-5---5---5---5---5---5---5---5-|
Dd|-0---0---0---0---7---7---7---7-|-5---5---5---5---5---5---5---5-|
    *play 4x

    Guitar 2
Eb|---------5---------------5-----|---------5---------------5-----|
Bb|-7---8-------8---7---8-------8-|-7---8-------8---7---8-------8-|
Gb|-------------------------------|-------------------------------|
Dd|-------------------------------|-------------------------------|
Ad|-------------------------------|-------------------------------|
Dd|-------------------------------|-------------------------------|
    *play 4x

    Guitars 1 & 2 (01:03)    "Save yourself..."
Eb|-------------------------------|------------------15p14--15p14-|
Bb|-------------------------------|-------------------------------|
Gb|-9---9---9---9---9---9---9---9-|-------------------------------|
Dd|-9---9---9---9---9---9---9---9-|-5---5---5---5-----------------|
Ad|-7---7---7---7---7---7---7---7-|-5---5---5---5-----------------|
Dd|-9---9---9---9---9---9---9---9-|-5---5---5---5-----------------|

Back to verse (01:07)

Solo (02:05)
Eb|-------------------------------|-------------------------------|
Bb|-------------------------------|-------------------------------|
Gb|-------------------------------|-----------------------3-3-3-3-|
Dd|-4-4-4-4-4-4-4-4-4-4-4-7-7-7-7-|-5-5-5-5-5-5-5-5-5-5-5---------|
Ad|-------------------------------|-------------------------------|
Dd|-------------------------------|-------------------------------|

Eb|-------------------------------|-------------------------------|
Bb|-----------------------2-2-2-2-|-3-3-3-3-3-3-3-3-3-3-3-5-5-5-5-|
Gb|-2-2-2-2-2-2-2-2-2-2-2---------|-------------------------------|
Dd|-------------------------------|-------------------------------|
Ad|-------------------------------|-------------------------------|
Dd|-------------------------------|-------------------------------|

Eb|-------------------------------|-------------------------------|
Bb|-------------------------------|-------------------------------|
Gb|-------------------------------|-----------------------3-3-3-3-|
Dd|-4-4-4-4-4-4-4-4-4-4-4-7-7-7-7-|-5-5-5-5-5-5-5-5-5-5-5---------|
Ad|-------------------------------|-------------------------------|
Dd|-------------------------------|-------------------------------|

Eb|-------------------------------|-------------------------------|
Bb|-----------------------2-2-2-2-|-3-3-3-3-3-3-3-3-3-3-3-5-5-5-5-|
Gb|-2-2-2-2-2-2-2-2-2-2-2---------|-------------------------------|
Dd|-------------------------------|-------------------------------|
Ad|-------------------------------|-------------------------------|
Dd|-------------------------------|-------------------------------|

Back to prechorus (02:23)

Outro (03:06)  "Save yourself..."
Eb|-------------------------------|-------------------------------|
Bb|-------------------------------|-------------------------------|
Gb|-9---------------(9)-----------|-------------------------------|
Dd|-9---------------(9)-----------|-5---------------(5)-----------|
Ad|-7---------------(7)-----------|-5---------------(5)-----------|
Dd|-9---------------(9)-----------|-5---------------(5)-----------|
Suggest correction
comments
print report bad tab
2 comments total.
+1 reply
Hoobadude1 10 Dec 30, 2004 07:00 PM

i havent played the whole thing yet but you're the only one that got the first little riff that Aaron plays right, so you get brownie points by me

0 reply
Jaikan 37 Dec 28, 2009 11:56 AM

Well done. This is the best tab I've seen for this song

guest
You may want to rate the tab now too:
select rating
Wanna post a correction for this tab? Suggest correction