Oops, an error
Loading. Please wait.

Skin tab

version 7
55 views 1 this week
no commentswrite comment
1 2 3 4 5
3 more votes to show rating
add to favorites
×
Save as Personal and add changes to this tab that will be seen only by you. Learn more ›
×
You can save this tab as Personal to edit and correct it or add notes. All changes will be seen only by you. Learn more »
launch autoscroll
font size
0
reset
how to read this tab
guitar tuner
edit
Autoscroll
slow
fast
+/-
esc
set tempo
stop
Tuning: Guitar 1 drop C#
        Guitar 2 drop C#

(Guitar 1)
[Intro]
D#|-------------------------|-------------------------|
A#|----------------------10-|-8-8---------8--8----11--|
F |-11-11--------11-11---9--|-7-7---------7--7----10--|
C#|-x--x--x-x--x-x--x--x-7--|-5-5--x-x--x-5--5--x-8---|  (x7)
G#|-9--9--x-x--x-9--9--x-7--|-5-5--x-x--x-5--5--x-8---|
C#|-0--0--x-x--x-0--0--x-7--|-5-5--x-x--x-5--5--x-8---|

D#|-------------------------|-------------------------|
A#|----------------------10-|-8-----------------------|
F |-11-11--------11-11---9--|-7-----------------------|
C#|-x--x--x-x--x-x--x--x-7--|-5-----------------------|
G#|-9--9--x-x--x-9--9--x-7--|-5-----------------------|
C#|-0--0--x-x--x-0--0--x-7--|-5-----------------------|

[Verse]
D#|-------------------------|-------------------------|
A#|----------------------10-|-8-8---------8--8----11--|
F |-11-11--------11-11---9--|-7-7---------7--7----10--|
C#|-x--x--x-x--x-x--x--x-7--|-5-5--x-x--x-5--5--x-8---|  (x4)
G#|-9--9--x-x--x-9--9--x-7--|-5-5--x-x--x-5--5--x-8---|
C#|-0--0--x-x--x-0--0--x-7--|-5-5--x-x--x-5--5--x-8---|
Pm  .            .  .    .    . .         .  .    .

[Pre-Chorus]
D#|---------------------|----------------------|
A#|---------------------|----------------------|
F |------6--7------6--7-|------6--7------6--7--|
C#|-9--9------7--7------|-5--5------5--5-------| (x2)
G#|-9--9------7--7------|-5--5------5--5-------|
C#|-9--9------7--7------|-5--5------5--5-------|

[Chorus]
D#|-------------------------|-------------------------|
A#|-------------------------|-------------------------|
F |-------------------------|-------------------------|
C#|-0--0--0--0--7--7--7--7--|-5--5--5--5--5--5--5--5--| (x4)
G#|-0--0--0--0--7--7--7--7--|-5--5--5--5--5--5--5--5--|
C#|-0--0--0--0--7--7--7--7--|-5--5--5--5--5--5--5--5--|

D#|-------------------------|--------------------------------|
A#|-------------------------|--------------------------------|
F |-9--9--9--9--9--9--9--9--|-5--5--5--5—--------------------|
C#|-9--9--9--9--9--9--9--9--|-5--5--5--5---------------------|
G#|-7--7--7--7--7--7--7--7--|-5--5--5--5---------------------|
C#|-9--9--9--9--9--9--9--9--|-5--5--5--5---------------------|

[Instrumental]
D#|-------------------------|-------------------------|
A#|----------------------10-|-8-8---------8--8----11--|
F |-11-11--------11-11---9--|-7-7---------7--7----10--|
C#|-x--x--x-x--x-x--x--x-7--|-5-5--x-x--x-5--5--x-8---|
G#|-9--9--x-x--x-9--9--x-7--|-5-5--x-x--x-5--5--x-8---|
C#|-0--0--x-x--x-0--0--x-7--|-5-5--x-x--x-5--5--x-8---|

D#|-------------------------|-------------------------|
A#|----------------------10-|-8-----------------------|
F |-11-11--------11-11---9--|-7-----------------------|
C#|-x--x--x-x--x-x--x--x-7--|-5-----------------------|
G#|-9--9--x-x--x-9--9--x-7--|-5-----------------------|
C#|-0--0--x-x--x-0--0--x-7--|-5-----------------------|

[Verse]
D#|-------------------------|-------------------------|
A#|----------------------10-|-8-8---------8--8----11--|
F |-11-11--------11-11---9--|-7-7---------7--7----10--|
C#|-x--x--x-x--x-x--x--x-7--|-5-5--x-x--x-5--5--x-8---|  (x4)
G#|-9--9--x-x--x-9--9--x-7--|-5-5--x-x--x-5--5--x-8---|
C#|-0--0--x-x--x-0--0--x-7--|-5-5--x-x--x-5--5--x-8---|
Pm  .            .  .    .    . .         .  .    .
 
[Pre-Chorus]
D#|---------------------|----------------------|
A#|---------------------|----------------------|
F |------6--7------6--7-|------6--7------6--7--|
C#|-9--9------7--7------|-5--5------5--5-------| (x2)
G#|-9--9------7--7------|-5--5------5--5-------|
C#|-9--9------7--7------|-5--5------5--5-------|

[Chorus]
D#|-------------------------|-------------------------|
A#|-------------------------|-------------------------|
F |-------------------------|-------------------------|
C#|-0--0--0--0--7--7--7--7--|-5--5--5--5--5--5--5--5--| (x4)
G#|-0--0--0--0--7--7--7--7--|-5--5--5--5--5--5--5--5--|
C#|-0--0--0--0--7--7--7--7--|-5--5--5--5--5--5--5--5--|

D#|-------------------------|--------------------------|
A#|-------------------------|--------------------------|
F |-9--9--9--9--9--9--9--9--|-5--5--5--5—--------------|
C#|-9--9--9--9--9--9--9--9--|-5--5--5--5---------------|
G#|-7--7--7--7--7--7--7--7--|-5--5--5--5---------------|
C#|-9--9--9--9--9--9--9--9--|-5--5--5--5---------------|

[Solo]
D#|---------------------------|---------------------------|
A#|---------------------------|---------------------------|
F |-11\\----------------14\\--|-12\\----------------15\\--|
C#|-x-\\----------------x-\\--|-x-\\----------------x-\\--|
G#|-9-\\----------------12\\--|-10\\----------------13\\--|
C#|---------------------------|---------------------------|

D#|---------------------------|----------------------------|
A#|---------------------------|----------------------------|
F |-14\\----------------18\\--|-19\\-----------------21\\--|
C#|-x-\\----------------x-\\--|-x-\\-----------------x-\\--|
G#|-12\\----------------16\\--|-17\\-----------------19\\--|
C#|---------------------------|----------------------------|

[Pre-Chorus]
D#|---------------------|----------------------|
A#|---------------------|----------------------|
F |------6--7------6--7-|------6--7------6--7--|
C#|-9--9------7--7------|-5--5------5--5-------| (x2)
G#|-9--9------7--7------|-5--5------5--5-------|
C#|-9--9------7--7------|-5--5------5--5-------|

[Chorus]
D#|-------------------------|-------------------------|
A#|-------------------------|-------------------------|
F |-------------------------|-------------------------|
C#|-0--0--0--0--7--7--7--7--|-5--5--5--5--5--5--5--5--| (x4)
G#|-0--0--0--0--7--7--7--7--|-5--5--5--5--5--5--5--5--|
C#|-0--0--0--0--7--7--7--7--|-5--5--5--5--5--5--5--5--|

D#|-------------------------|-------------------------|
A#|-------------------------|-------------------------|
F |-9-----------------------|-5-----------—-----------|
C#|-9-----------------------|-5-----------------------|
G#|-7-----------------------|-5-----------------------|
C#|-9-----------------------|-5-----------------------|

(Guitar 2)
[Intro]
D#|-------------------------|-------------------------|
A#|----------------------10-|-8-8---------8--8----11--|
F |-11-11--------11-11---9--|-7-7---------7--7----10--|
C#|-x--x--x-x--x-x--x--x-7--|-5-5--x-x--x-5--5--x-8---|  (x2)
G#|-9--9--x-x--x-9--9--x-7--|-5-5--x-x--x-5--5--x-8---|
C#|-0--0--x-x--x-0--0--x-7--|-5-5--x-x--x-5--5--x-8---|

D#|-------------------------|-------------------------|
A#|-------------------------|-------------------------|
F |----7--6--7--9--7--6--7--|----7--6--7--10--9--7----|
C#|-7-----------------------|-5---------------------8-|
G#|-------------------------|-------------------------|
C#|-------------------------|-------------------------|

D#|-------------------------|-------------------------|
A#|-------------------------|-------------------------|
F |----7--6--7--9--7--6--7--|-------------------------|
C#|-7-----------------------|-5-----------------------|
G#|-------------------------|-------------------------|
C#|-------------------------|-------------------------|

[Verse]
D#|-------------------------|-------------------------|
A#|----------------------10-|-8-8---------8--8----11--|
F |-11-11--------11-11---9--|-7-7---------7--7----10--|
C#|-x--x--x-x--x-x--x--x-7--|-5-5--x-x--x-5--5--x-8---|  (x4)
G#|-9--9--x-x--x-9--9--x-7--|-5-5--x-x--x-5--5--x-8---|
C#|-0--0--x-x--x-0--0--x-7--|-5-5--x-x--x-5--5--x-8---|
Pm  .         .  .    .  . .         .  .    .

[Pre-Chorus]
D#|---------------------|----------------------|
A#|---------------------|----------------------|
F |------6--7------6--7-|------6--7------6--7--|
C#|-9--9------7--7------|-5--5------5--5-------| 
G#|-9--9------7--7------|-5--5------5--5-------|
C#|-9--9------7--7------|-5--5------5--5-------|

D#|---------------------|----------------------|
A#|------5--7------5--7-|------5--7------5--7--|
F |---------------------|----------------------|
C#|-9--9------7--7------|-5--5------5--5-------| 
G#|-9--9------7--7------|-5--5------5--5-------|
C#|-9--9------7--7------|-5--5------5--5-------|

[Chorus]
D#|-------------------------|-------------------------|
A#|-------------------------|-------------------------|
F |-------------------------|-------------------------|
C#|-0--0--0--0--7--7--7--7--|-5--5--5--5--5--5--5--5--| (x4)
G#|-0--0--0--0--7--7--7--7--|-5--5--5--5--5--5--5--5--|
C#|-0--0--0--0--7--7--7--7--|-5--5--5--5--5--5--5--5--|

D#|-------------------------|--------------------------------|
A#|-------------------------|-----------------(7)-------(7)--|
F |-9--9--9--9--9--9--9--9--|-5--5--5--5—(5)-------(5)-------|
C#|-9--9--9--9--9--9--9--9--|-5--5--5--5---------------------|
G#|-7--7--7--7--7--7--7--7--|-5--5--5--5---------------------|
C#|-9--9--9--9--9--9--9--9--|-5--5--5--5---------------------|

[Instrumental]
D#|-------------------------|-------------------------|
A#|----------------------10-|-8-8---------8--8----11--|
F |-11-11--------11-11---9--|-7-7---------7--7----10--|
C#|-x--x--x-x--x-x--x--x-7--|-5-5--x-x--x-5--5--x-8---|  (x2)
G#|-9--9--x-x--x-9--9--x-7--|-5-5--x-x--x-5--5--x-8---|
C#|-0--0--x-x--x-0--0--x-7--|-5-5--x-x--x-5--5--x-8---|

[Verse]
D#|-------------------------|-------------------------|
A#|----------------------10-|-8-8---------8--8----11--|
F |-11-11--------11-11---9--|-7-7---------7--7----10--|
C#|-x--x--x-x--x-x--x--x-7--|-5-5--x-x--x-5--5--x-8---|  (x4)
G#|-9--9--x-x--x-9--9--x-7--|-5-5--x-x--x-5--5--x-8---|
C#|-0--0--x-x--x-0--0--x-7--|-5-5--x-x--x-5--5--x-8---|
Pm  .            .  .    .    . .         .  .    .

[Pre-Chorus]
D#|---------------------|----------------------|
A#|---------------------|----------------------|
F |------6--7------6--7-|------6--7------6--7--|
C#|-9--9------7--7------|-5--5------5--5-------| 
G#|-9--9------7--7------|-5--5------5--5-------|
C#|-9--9------7--7------|-5--5------5--5-------|

D#|---------------------|----------------------|
A#|------5--7------5--7-|------5--7------5--7--|
F |---------------------|----------------------|
C#|-9--9------7--7------|-5--5------5--5-------| 
G#|-9--9------7--7------|-5--5------5--5-------|
C#|-9--9------7--7------|-5--5------5--5-------|

[Chorus]
D#|-------------------------|-------------------------|
A#|-------------------------|-------------------------|
F |-------------------------|-------------------------|
C#|-0--0--0--0--7--7--7--7--|-5--5--5--5--5--5--5--5--| (x4)
G#|-0--0--0--0--7--7--7--7--|-5--5--5--5--5--5--5--5--|
C#|-0--0--0--0--7--7--7--7--|-5--5--5--5--5--5--5--5--|

D#|-------------------------|--------------------------------|
A#|-------------------------|-----------------(7)-------(7)--|
F |-9--9--9--9--9--9--9--9--|-5--5--5--5—(5)-------(5)-------|
C#|-9--9--9--9--9--9--9--9--|-5--5--5--5---------------------|
G#|-7--7--7--7--7--7--7--7--|-5--5--5--5---------------------|
C#|-9--9--9--9--9--9--9--9--|-5--5--5--5---------------------|

[Solo]
D#|-------------------------|-------------------------|
A#|----------------------10-|-8-8---------8--8----11--|
F |-11-11--------11-11---9--|-7-7---------7--7----10--|
C#|-x--x--x-x--x-x--x--x-7--|-5-5--x-x--x-5--5--x-8---|  (x4)
G#|-9--9--x-x--x-9--9--x-7--|-5-5--x-x--x-5--5--x-8---|
C#|-0--0--x-x--x-0--0--x-7--|-5-5--x-x--x-5--5--x-8---|

[Pre-Chorus]
D#|---------------------|----------------------|
A#|---------------------|----------------------|
F |------6--7------6--7-|------6--7------6--7--|
C#|-9--9------7--7------|-5--5------5--5-------| 
G#|-9--9------7--7------|-5--5------5--5-------|
C#|-9--9------7--7------|-5--5------5--5-------|

D#|---------------------|----------------------|
A#|------5--7------5--7-|------5--7------5--7--|
F |---------------------|----------------------|
C#|-9--9------7--7------|-5--5------5--5-------| 
G#|-9--9------7--7------|-5--5------5--5-------|
C#|-9--9------7--7------|-5--5------5--5-------|

[Chorus]
D#|-------------------------|-------------------------|
A#|-------------------------|-------------------------|
F |-------------------------|-------------------------|
C#|-0--0--0--0--7--7--7--7--|-5--5--5--5--5--5--5--5--| (x8)
G#|-0--0--0--0--7--7--7--7--|-5--5--5--5--5--5--5--5--|
C#|-0--0--0--0--7--7--7--7--|-5--5--5--5--5--5--5--5--|

D#|-------------------------|-------------------------|
A#|-------------------------|-------------------------|
F |-9-----------------------|-5-----------—-----------|
C#|-9-----------------------|-5-----------------------|
G#|-7-----------------------|-5-----------------------|
C#|-9-----------------------|-5-----------------------|


************************************

| x    Dead note
| .    Staccato
| \    Slide down
| (n)  Ghost note

************************************

            
            
Suggest correction
Creating personal tab
Creating personal tab
You can edit any tab online and save it as your Personal.

You can edit, replace or remove any tab part or add personal notes – all changes will be seen only by you.

Personal tabs can be accessed anytime from any device, even offline.
Learn more »
Give kudos to tab author, rate the tab!
1 2 3 4 5
comments
print report bad tab
guest
You may want to rate the tab now too:
select rating
Wanna post a correction for this tab? Suggest correction