Oops, an error
Loading. Please wait.

So Cold Bass Tab

version 1
version 1
20,958 views 21 this week
1 commentread comment
1 2 3 4 5
accurate
x 5
add to favorites
launch autoscroll
font size
0
reset
guitar tuner
Tab Pro tools
  • play this tab
  • loop segment
  • change instrument
  • show fretboard
  • metronome
×
Best way to learn
"So Cold"
Autoscroll
slow
fast
+/-
esc
set tempo
stop
Contributor
Difficulty
intermediate
-------------------------------------------------------------------------------
			     SO COLD - Breaking Benjamin
-------------------------------------------------------------------------------
Tabbed By : Doty
e-mail: lprophetsN8@comcast.net

Tuning: CACG (lowest to highest)

NOTE: DOUBLE-DIGIT FRETS (10 AND UP) ARE ENCLOSED IN BRACKETS [10]
(to make it easier to distinguish a 10 from a 1 and then a 0)

00:00                   00:26
 |	Intro Riff #1	  |               Intro Riff #2              |
 |                        |                                          |
G|------------------------|--85-35-7-73-----3h5---85-35-7-73---------|
C|-0-0-3--3----050588--77-|-0--0--0------3h5-----0--0--0-----0-5h7-3-|
A|--3-3-------------------|------------------------------------------|
C|------------------------|------------------------------------------|
 |\__________x4__________/|\___________________x2___________________/|
 (MF)

00:39
 |			     Intro Riff #3
 |
G|------------------------------------------------------------------|
C|------------------------------------------------------------------|
A|--63-13-5-51------1h3--63-13-5-51-------------63-13-5-51------1h3-|
C|-0--0--0-----0-3h5----0--0--0-----0-5h7-3----0--0--0-----0-3h5----|
 |\___________________________________________x1____________________
 (F)

	         00:52
 		   |	   Verse #1 Riff #1       |
 		   |                              |
  -----------------|------------------------------|
  -----------------|------------------------------|
  --63-13-5-5-1-1--|----------------1---------665-|
  -0--0--0-----0-3-|-0--------003303-0------------|
__________________/|\_____________x5_____________/|
                   (P)

01:23                    01:24
 |    Verse #1 Riff #2     |    Verse #1 Riff #3    |
 |			   |			    |
G|-------------------------|------------------------|
C|-------------------------|------------------------|
A|------1h3---1/66h7p6---1-|------1h3---1/66h7------|
C|-0-3h5-----0---------03--|-0-3h5-----0-------0-3/-|
 |\___________x1__________/|\__________x1__________/|
 (MF)

01:28
 |                                Chorus #1
 |
G|---------------------------------------------------------------------------|
C|---------------------------------------------------------------------------|
A|---------------------------------------------------------------------------|
C|-8-8-8-8-88-xx-00-00-00-00-[10][10][10]\8-8-8-8-88-xx-00-00-00-00-[10][10]-|
 |\______________________________________x1__________________________________
 (F)


									    |
									    |
  --------------------------------------------------------------------------|
  --------------------------------------------------------------------------|
  ------------------------------------------------------------8-8-8-8-88-xx-|
  -77-8-8-8-8-88\0-2-3-5/[15]--[15]--[15]--[15]--[15][15][15]---------------|
_________________________________________x1________________________________/|


01:53
 |           Chorus #1 Outro		|
 |					|
G|--------------------------------------|
C|--------------------------------------|
A|--63-13-5-51------1h3--63-13-5-5-1-1--|
C|-0--0--0-----0-3h5----0--0--0-----0-3-|
 |\_________________x1_________________/|
 (FF)

02:00
 |    Verse #2 Riff #1	    |    Verse #2 Riff #2   |
 |			    |                       |
G|------3h5---3/88h9p8----3-|------3h5---3/77h8-----|
C|-0-3h5----0----------0-3--|-0-3h5----0------------|
A|--------------------------|-----------------------|
C|--------------------------|-------------------0-3-|
 |\_______________________x4_______________________/|
 (MF)

02:24
 |		                Verse #2 Riff #3			     |
 |									     |
G|------3h5---3/88h9p8---8h[10]/[13]p[12][12][12][10][10][10]888h[10]p88p77h8|
C|-0-3h5----0----------0-----------------------------------------------------|
A|---------------------------------------------------------------------------|
C|---------------------------------------------------------------------------|
 |\____________________________________x1___________________________________/|


02:30
 |				   Chorus #2
 |								     ^   ^ ^
G|----------------------------------------------------------------------------|
C|----------------------------------------------------------------------------|
A|----------------------------------------------------------------------------|
C|-8-8-8-8-88-xx-00-00-00-00-[10][10][10]\8-8-8-8-88-xx-00-00-00-00-[10]-7-8--|
 |\___________________________________x1______________________________________
 (F)


								   |
								   |
  -----------------------------------------------------------------|
  -----------------------------------------------------------------|
  -----------3--------------------------------------------8-----5\-|
  -8-8-8-88\---2-3-5/[15]--[15]--[15]--[15]--[15][15][15]----------|
________________________________x1________________________________/|


02:55
 |	     Bridge #1 Riff #1            |
 |					  |
G|----------------------------------------|
C|----------------------------------------|
A|------3--------3------3-----------------|
C|-0-3h5--0-3-5h6--0-3h5--6p5h6-[10]-65h6-|
 |\__________________x3__________________/|
 (FF)

03:19
 |		  Bridge #1 Riff #2		   |
 |<___rest___>					   |
G|<___rest___>-------------------------------------|
C|<___rest___>-------------------------------------|
A|<___rest___>---3--------3------3-----------------|
C|<___rest___>3h5--0-3-5h6--0-3h5--6p5h6-[10]-65h6-|
 |\_____________________x1________________________/|


03:21
 |				Chorus #3
 |								    ^   ^ ^
G|--------------------------------------------------------------------------|
C|---------------------------------------------0-2-3-5----------------------|
A|---------33h5-------------------------------------------------------------|
C|-8-8-8-8------00-00-00-00-[10][10][10]\8-8-8---------00-00-00-00-[10]-7-8-|
 |\_________________________________x1______________________________________
 (F)


							|
   ^					 (x8)    (x8)   |
  ------1-0-----------------------5----3333333344444444-|
  ---0h3----5-3-2-0------3-3---0-3-3-0------------------|
  ------------------------------------------------------|
  -8----------------2-3-5-------------------------------|
_________________________x1____________________________/|


03:46
 |                      Bridge #2			|
 |							|
G|-5x---------------------------------------------------|
C|--x---------------------------------------------------|
A|--x---------------------------------------------------|
C|--x---------------------------------------------------|
 |\_________________________x1_________________________/|


03:58
 |			     Bridge #3				   |
 |								   |
G|-----------------------------------------------------------------|
C|-----------------------------------------------------------------|
A|-----------------------------------------------------------------|
C|-0000--0-00-0888\0000--0-00-0888\0000-0-00-0888\0000--0-00-0888\-|
 |\______________________________x1_______________________________/|
 (FFF)

04:11
 |				    Outro
 |
G|---------------------------------------------------------------------------|
C|------------------------------------------------------------------------00-|
A|---------------------------------------------------------------------------|
C|-000-3-2-3/[10][10][10]\000-3-2-3/[10][10][10]\00-3-2-3/[10][10][10][10]---|
 |\__________________________________x1______________________________________

       *********************************     04:33
  --------------------------------------------||
  -0-3/12~~~~~~~~~~---------------------------||
  --------------------------------------------||
  --------------------------------------------||
___________________x1________________________/||
 (F)


ENJOY!!!

| /   slide up
| \   slide down
| h   hammer-on
| p   pull-off
| ~   vibrato
| +   harmonic
| x   Mute note
|(P)  Piano (softly)
|(MF) Metzo Forte (normally)
|(F)  Forte (loudly)
| ^   Accent (more violent attack)
|***  Tie
===============================================================================
comments
print report bad tab
1 comment total.
0 reply
BassicDragon33 wrote on May 9 2008, 04:52 pm

This tab is perfect. Plus you don't have to spend much time tuning for it. 5 Stars.

I want to post or [tab]
guest
You may want to rate the tab now too:
select rating
Please do not post tabs as comments. Select "correction" instead!