Oops, an error
Loading. Please wait.
We have an official So Cold tab made by UG professional guitarists. Check out the tab »
×

So Cold tab

145,616 views 159 this week
11 commentsread comments
1 2 3 4 5
x 29
add to favorites
×
Save as Personal and add changes to this tab that will be seen only by you. Learn more ›
×
You can save this tab as Personal to edit and correct it or add notes. All changes will be seen only by you. Learn more »
launch autoscroll
font size
0
reset
how to read this tab
guitar tuner
backing track
0:00
0:00
edit
Autoscroll
slow
fast
+/-
esc
set tempo
stop
Breaking Benjamin
So Cold
Email me with any corrections or comments jonp137@hotmail.com
Tuning: Drop C

[Intro]

 Guitar 1
D|---------------------------------|
A|---------------------------------|
F|---------------------------------|
C|----------3---------------8--7---|  x6
G|---5---5--5-----10---10--10--8---|
C|-0---0--------0----0-------------|

 Guitar 2  (After guitar 1 plays riff twice, guitar 2 comes in)
D|-10----------10----------------10-------------10---------------|
A|----10--13------10-10h13-10-8-----10--10h13------10-10h13-10-8-|
F|---------------------------------------------------------------|
C|---------------------------------------------------------------|
G|---------------------------------------------------------------|
C|---------------------------------------------------------------|

D|-10----------10----------------10-------------10------------12-|
A|----10--13------10-10h13-10-8-----10--10h13------10--13--10----|
F|---------------------------------------------------------------|
C|---------------------------------------------------------------|
G|---------------------------------------------------------------|
C|---------------------------------------------------------------|

 Guitar 1
D|------------------------------------------------------------|
A|------------------------------------------------------------|
F|------------------------------------------------------------|
C|------------------------------------------------------------|
G|---8-5---3h5---7-7-3-------3h5----8-5---3h5---7-7-3---3h5---|
C|-0-----0-----0-------0-3h5------0-----0-----0-------0-----3-|

D|------------------------------------------------------------|
A|------------------------------------------------------------|
F|------------------------------------------------------------|
C|------------------------------------------------------------|
G|---8-5---3h5---7-7-3-------3h5----8-5---3h5---7-7-3---3-----|
C|-0-----0-----0-------0-3h5------0-----0-----0-------0---3-0-|

 Guitar 2
D|-10----------------10-------------12--|
A|----10-10h13-10-8-----10-10h13-10-----|
F|--------------------------------------|
C|--------------------------------------| x2
G|--------------------------------------|
C|--------------------------------------|


[Verse]

 Guitar 1 (you hear this behind guitar 2 a buncha times)
D|-------------------------------------|
A|-------------------------------------|
F|-------------------------------------|
C|-0~-----------/3-0~------------/3-0~-|
G|-0~-----------/3-0~------------/3-0~-|
C|-0~-----------/3-0~------------/3-0~-|

 Guitar 2
D|----------------------------------------------------------------------------|
A|10--8--11--10-------10--8--11--10-------10--8--11--10-------10--8-----------|
F|--------------10p7----------------10p7----------------10p7---------10--9--7-|
C|----------------------------------------------------------------------------|x2
G|----------------------------------------------------------------------------|
C|----------------------------------------------------------------------------|

D|---------------------------------------------10----8-----------------|
A|-10--8--11--10-----10--8--11--10---10--8--11----10----10--8----------|
F|---------------7--------------------------------------------10--9--7-|
C|---------------------------------------------------------------------|
G|---------------------------------------------------------------------|
C|---------------------------------------------------------------------|


 [Chorus]  (figure out strumming pattern)
 Guitar 1
D|----------------------------------------------------------------|
A|----------------------------------------------------------------|
F|----------------------------------------------------------------|
C|-3-3-3-3--0-0--0-0--0-0--0-0-5--3-3-3-3--0-0--0-0--0-0--0-0-5-2-|
G|-1-1-1-1--0-0--0-0--0-0--0-0-3--1-1-1-1--0-0--0-0--0-0--0-0-3-0-|
C|----------0-0--0-0--0-0--0-0-------------0-0--0-0--0-0--0-0-----|

 Guitar 2
D|---6-6-6--------------------------6-6-6--------------------------|
A|---6-6-6--------------------------6-6-6--------------------------|
F|-----------------------------------------------------------------|
C|----------0-0--0-0--0-0--0-0-5-----------0-0--0-0--0-0--0-0--5-2-|
G|----------0-0--0-0--0-0--0-0-3-----------0-0--0-0--0-0--0-0--3-0-|
C|----------0-0--0-0--0-0--0-0-------------0-0--0-0--0-0--0-0------|

 Guitar 1
D|----------------------------------------------------------------|
A|----------------------------------------------------------------|
F|----------------------------------------------------------------|
C|-3-3-3-3--0-0--0-0--0-0--0-0-5--3-3-3-3-3-3-3-3-5-5-5-5-5-5-5-5-|
G|-1-1-1-1--0-0--0-0--0-0--0-0-3--1-1-1-1-1-1-1-1-3-3-3-3-3-3-3-3-|
C|----------0-0--0-0--0-0--0-0------------------------------------|

 Guitar 2
D|---6-6-6--------------------------------------------------------|
A|---6-6-6--3----5----6----8--------------------------------------|
F|----------------------------------------------------------------|
C|--------------------------------3-3-3-3-3-3-3-3-5-5-5-5-5-5-5-5-|
G|--------------------------------1-1-1-1-1-1-1-1-3-3-3-3-3-3-3-3-|
C|----------------------------------------------------------------|


 [Post Chorus]
 Guitar 1
D|------------------------------------------------------------|
A|------------------------------------------------------------|
F|------------------------------------------------------------|
C|------------------------------------------------------------|
G|---8-5---3h5---7-7-3-------3h5----8-5---3h5---7-7-3---3-----|
C|-0-----0-----0-------0-3h5------0-----0-----0-------0---3-0-|

D|-10----------------10-------------12-|
A|----10-10h13-10-8-----10-10h13-10----|
F|-------------------------------------|
C|-------------------------------------|
G|-------------------------------------|
C|-------------------------------------|


 [Verse]
 Guitar 1 (you hear this behind guitar 2 alot of times)
D|-------------------------------------|
A|-------------------------------------|
F|-------------------------------------|
C|-0~-----------/3-0~------------/3-0~-|
G|-0~-----------/3-0~------------/3-0~-|
C|-0~-----------/3-0~------------/3-0~-|

 Guitar 2
D|----------------------------------------------------------------------------|
A|10--8--11--10-------10--8--11--10-------10--8--11--10-------10--8-----------|
F|--------------10p7----------------10p7----------------10p7---------10--9--7-|
C|----------------------------------------------------------------------------|x2
G|----------------------------------------------------------------------------|
C|----------------------------------------------------------------------------|

D|---------------------------------------------10----8-----------------|
A|-10--8--11--10-----10--8--11--10---10--8--11----10----10--8----------|
F|---------------7--------------------------------------------10--9--7-|
C|---------------------------------------------------------------------|
G|---------------------------------------------------------------------|
C|---------------------------------------------------------------------|


 [Chorus]  (figure out strumming pattern)
 Guitar 1
D|----------------------------------------------------------------|
A|----------------------------------------------------------------|
F|----------------------------------------------------------------|
C|-3-3-3-3--0-0--0-0--0-0--0-0-5--3-3-3-3--0-0--0-0--0-0--0-0-5-2-|
G|-1-1-1-1--0-0--0-0--0-0--0-0-3--1-1-1-1--0-0--0-0--0-0--0-0-3-0-|
C|----------0-0--0-0--0-0--0-0-------------0-0--0-0--0-0--0-0-----|

 Guitar 2
D|---6-6-6--------------------------6-6-6--------------------------|
A|---6-6-6--------------------------6-6-6--------------------------|
F|-----------------------------------------------------------------|
C|----------0-0--0-0--0-0--0-0-5-----------0-0--0-0--0-0--0-0--5-2-|
G|----------0-0--0-0--0-0--0-0-3-----------0-0--0-0--0-0--0-0--3-0-|
C|----------0-0--0-0--0-0--0-0-------------0-0--0-0--0-0--0-0------|

 Guitar 1
D|----------------------------------------------------------------|
A|----------------------------------------------------------------|
F|----------------------------------------------------------------|
C|-3-3-3-3--0-0--0-0--0-0--0-0-5--3-3-3-3-3-3-3-3-5-5-5-5-5-5-5-5-|
G|-1-1-1-1--0-0--0-0--0-0--0-0-3--1-1-1-1-1-1-1-1-3-3-3-3-3-3-3-3-|
C|----------0-0--0-0--0-0--0-0------------------------------------|

 Guitar 2
D|---6-6-6--------------------------------------------------------|
A|---6-6-6--3----5----6----8--------------------------------------|
F|----------------------------------------------------------------|
C|--------------------------------3-3-3-3-3-3-3-3-5-5-5-5-5-5-5-5-|
G|--------------------------------1-1-1-1-1-1-1-1-3-3-3-3-3-3-3-3-|
C|----------------------------------------------------------------|


 [Bridge]
 Guitar 1 & 2
D|-----------------------------------------------|
A|-----------------------------------------------|
F|-----------------------------------------------|
C|-----------------------------------------------| x2
G|-------5------------5--------5--------3--------|
C|-0-3h5----0--3--5-6----0-3h5----6-5-6---6-5-3--|


 [Solo] (Guitar 2 is definitely not 100%, so if you have it perfect, correct me)
 Guitar 1
D|----------------------------------------------|
A|----------------------------------------------|
F|----------------------------------------------|
C|----------------------------------------------|
G|-------5------------5--------5--------3-------|
C|-0-3h5----0--3--5-6----0-3h5----6-5-6---6-5-3-|

 Guitar 2
D|------------------------------------------------------------8b-10b-10b-10p8-|
A|-10-10-10-10-----------------8b------------------------8-10-----------------|
F|-10-10-10-10-10b-10b-10b-10b----10p7----7---------7-10----------------------|
C|-------------------------------------10---10-7-10---------------------------|
G|----------------------------------------------------------------------------|
C|----------------------------------------------------------------------------|

 Guitar 2 cont.
D|-\15b-15-13b--------------------------------------|
A|-------------15-13----13--------------------------|
F|-------------------14----14-12-14----12-------^---|
C|----------------------------------15----15-12-15--|b
G|--------------------------------------------------|
C|--------------------------------------------------|


 [Chorus]  (figure out strumming pattern)
 Guitar 1
D|----------------------------------------------------------------|
A|----------------------------------------------------------------|
F|----------------------------------------------------------------|
C|-3-3-3-3--0-0--0-0--0-0--0-0-5--3-3-3-3--0-0--0-0--0-0--0-0-5-2-|
G|-1-1-1-1--0-0--0-0--0-0--0-0-3--1-1-1-1--0-0--0-0--0-0--0-0-3-0-|
C|----------0-0--0-0--0-0--0-0-------------0-0--0-0--0-0--0-0-----|

 Guitar 2
D|---6-6-6--------------------------6-6-6--------------------------|
A|---6-6-6--------------------------6-6-6--------------------------|
F|-----------------------------------------------------------------|
C|----------0-0--0-0--0-0--0-0-5-----------0-0--0-0--0-0--0-0--5-2-|
G|----------0-0--0-0--0-0--0-0-3-----------0-0--0-0--0-0--0-0--3-0-|
C|----------0-0--0-0--0-0--0-0-------------0-0--0-0--0-0--0-0------|

 Guitar 1
D|----------------------------------------------------------------|
A|----------------------------------------------------------------|
F|----------------------------------------------------------------|
C|-3-3-3-3--0-0--0-0--0-0--0-0-5--3-3-3-3-3-3-3-3-5-5-5-5-5-5-5-5-|
G|-1-1-1-1--0-0--0-0--0-0--0-0-3--1-1-1-1-1-1-1-1-3-3-3-3-3-3-3-3-|
C|----------0-0--0-0--0-0--0-0------------------------------------|

 Guitar 2
D|---6-6-6--------------------------------------------------------|
A|---6-6-6--3----5----6----8--------------------------------------|
F|----------------------------------------------------------------|
C|--------------------------------3-3-3-3-3-3-3-3-5-5-5-5-5-5-5-5-|
G|--------------------------------1-1-1-1-1-1-1-1-3-3-3-3-3-3-3-3-|
C|----------------------------------------------------------------|


 [Bridge 2]
 Guitar 1
D|----------------------------|
A|-10----10----10----10----8--|
F|-10----10----10----10----9--|
C|---0-0---0-0---0-0---0-0----| x6
G|----------------------------|
C|----------------------------|
    . .   . .   . .   . .

 Guitar 2  (Guitar 1 plays riff twice, then guitar 2 comes in with this)
D|-10----10----10----10----8-|
A|-10----10----10----10----8-|
F|---------------------------|
C|---------------------------|
G|---------------------------|
C|---------------------------|


 [Outro] (Not 100% sure on this either)
 Guitar 1
D|-------------------|
A|----------------10-|
F|----------------10-|
C|-0-0-0---0-0-0-----|
G|-0-0-0---0-0-0-----|
C|-0-0-0---0-0-0-----|

 Guitar 2
D|----
A|-10~
F|-10~
C|---- just keep playing this
G|----
C|----

 Guitar 1
D|---------------|
A|---------------|
F|---------------|
C|-0-0-0---0-0-0-| repeat until end
G|-0-0-0---0-0-0-|
C|-0-0-0---0-0-0-|

 Guitar 2
D|---------------8----------------8----------------8------------|
A|---------------8----------------8----------------8------------|
F|-7--10--9--10-----7--10--9--10-----7--10--9--10-----7--10--9~-|
C|--------------------------------------------------------------|
G|--------------------------------------------------------------|
C|--------------------------------------------------------------|

END



************************************

| h  Hammer-on
| p  Pull-off
| b  Bend
| /  Slide up
| \  Slide down
| ~  Vibrato

************************************

            
            
Suggest correction
Creating personal tab
Creating personal tab
You can edit any tab online and save it as your Personal.

You can edit, replace or remove any tab part or add personal notes – all changes will be seen only by you.

Personal tabs can be accessed anytime from any device, even offline.
Learn more »
comments
print report bad tab
11 comments total. Showing first comments.
0 reply
playgtr055 40 Aug 09, 2004 08:00 PM

chorus is all wrong dude

0 reply
Vans2639 91 Oct 15, 2004 08:00 PM

whoa. u got the solo pretty much perfect (IMO), but a lot of the other stuff wrong... ok...

0 reply
goddddddddddd 10 Mar 05, 2006 01:33 PM

y is everyone writeing the samething down ?

guest
You may want to rate the tab now too:
select rating
Wanna post a correction for this tab? Suggest correction