Oops, an error
Loading. Please wait.

So Cold Tab

version 2
version 2

Whole song

321,811 views 276 this week
45 commentsread comments
1 2 3 4 5
x 118
add to favorites
launch autoscroll
font size
0
reset
how to read this tab
guitar tuner
backing track
0:00
0:00
×
Best way to learn
"So Cold"
Autoscroll
slow
fast
+/-
esc
set tempo
stop
Author
Tuning
C G C F A D
Band: Breaking Benjamin
Song: So Cold
Album: We Are Not Alone
Tabbed by: Chad Hayes (cch5767)
Notes: This song is complete (excluding main solo)
The INTRO has numbered measures for easy reading.
Tuning: Drop C

[INTRO]
 1             2                    3              4         
D|-------------|--------------------|--------------|-------------------|
A|-------------|--------------------|--------------|-------------------|
F|-------------|--------------------|--------------|-------------------|
C|---------3---|------------8---7---|---------3----|------------8--7---|
G|--5---5--5---|--10---10--10---8---|--5---5--5----|--10---10--10--8---|
C|0---0--------|0----0--------------|0---0---------|0----0-------------|

[RHYTHM]
 5             6                    7              8                   
D|-------------|--------------------|--------------|-------------------|
A|-------------|--------------------|--------------|-------------------|
F|-------------|--------------------|--------------|-------------------|
C|---------3---|------------8---7---|---------3----|------------8--7---|
G|--5---5--5---|--10---10--10---8---|--5---5--5----|--10---10--10--8---|
C|0---0--------|0----0--------------|0---0---------|0----0-------------|

[LEAD]    
E|10-----------|10------------------|10------------|10-----------------|
A|----10--13---|---10--10-13-10-----|----10--10-13-|--10--10-13-10-----|
F|-------------|-----------------12-|--------------|----------------12-|
C|-------------|--------------------|--------------|-------------------|
G|-------------|--------------------|--------------|-------------------|
C|-------------|--------------------|--------------|-------------------|

[RHYTHM]
 9                              10                          
D|------------------------------|---------------------------|
A|------------------------------|---------------------------|
F|------------------------------|---------------------------|
C|--------------------3---------|-------------------8----7--|
G|-----5---------5----5---------|----10-------10---10----8--|
C|0---------0-------------------|0--------0-----------------|

[LEAD]
E|----------10------------------|-------10------------------|
A|-----------------10----13-----|----------10--10-13-10-----|
F|------------------------------|------------------------12-|
C|------------------------------|---------------------------|
G|------------------------------|---------------------------|
C|------------------------------|---------------------------|

[RHYTHM 2]
E|------------------------------|---------------------------|
A|------------------------------|---------------------------|
F|------------------------------|---------------------------|
C|--------------2-2-------------|--------------2-2----------|
G|--8-5---3-5-------3-------3-5-|--8-5---3-5-------3---3-5--|
C|0-----0-----0-------0-3-5-----|0-----0-----0-------0-----3|

[RHYTHM]   
 11                             12
D|------------------------------|---------------------------|
A|------------------------------|---------------------------|
F|------------------------------|---------------------------|
C|--------------------3---------|-------------------8----7--|
G|-----5---------5----5---------|----10-------10---10----8--|
C|0---------0-------------------|0--------0-----------------|

[LEAD]
E|----------10------------------|--------10--------------12-|
A|-----------------10----13-----|------------10--13--10-----|
F|------------------------------|---------------------------|
C|------------------------------|---------------------------|
G|------------------------------|---------------------------|
C|------------------------------|---------------------------|

[RHYTHM 2]
E|------------------------------|---------------------------|
A|------------------------------|---------------------------|
F|------------------------------|---------------------------|
C|--------------2-2-------------|--------------2-2----------|
G|--8-5---3-5-------3-------3-5-|--8-5---3-5-------3---3-5--|
C|0-----0-----0-------0-3-5-----|0-----0-----0-------0-----3|

[HEAVY PART OF INTRO]
[LEAD]  
 13                             14 
D|--------10--------------------|--------10--------------12-|
A|------------10--10-13--10-----|------------10--13--10-----|
F|---------------------------12-|---------------------------|
C|------------------------------|---------------------------|
G|------------------------------|---------------------------|
C|------------------------------|---------------------------|

[RHYTHM 2]
E|------------------------------|---------------------------|
A|------------------------------|---------------------------|
F|------------------------------|---------------------------|
C|--------------2-2-------------|--------------2-2----------|
G|--8-5---3-5-------3-------3-5-|--8-5---3-5-------3---3-5--|
C|0-----0-----0-------0-3-5-----|0-----0-----0-------0-----3|

[LEAD]
 15                             16 
D|--------10--------------------|--------10--------------12-|
A|------------10--10-13--10-----|------------10--13--10-----|
F|---------------------------12-|---------------------------|
C|------------------------------|---------------------------|
G|------------------------------|---------------------------|
C|------------------------------|---------------------------|

[RHYTHM 2]
E|------------------------------|---------------------------|
A|------------------------------|---------------------------|
F|------------------------------|---------------------------|
C|--------------2-2-------------|--------------2-2-----5----|
G|--8-5---3-5-------3-------3-5-|--8-5---3-5-------3---3--3-|
C|0-----0-----0-------0-3-5-----|0-----0-----0-------0----3-|

[VERSE RHYTHM]
D|--------------|--------------|
A|--------------|--------------|
F|--------------|--------------|
C|0------------3|0------------3| 
G|0------------3|0------------3|
C|0------------3|0------------3|

[VERSE LEAD]
D|---------------|---------------|---------------|-------------|
A|10-8-11-10-----|10-8-11-10-----|10-8-11-10-----|10-8---------|
F|-----------10-7|-----------10-7| ----------10-7|-----10-9-7--|[Repeat]
C|---------------|---------------|---------------|------------8|
G|---------------|---------------|---------------|-------------|
C|---------------|---------------|---------------|-------------|

D|---------------|---------------|--------10-8---|-------------|
A|10-8-11-10-----|10-8-11-10-----|10-8-11--------|10-8---------|
F|-----------10--|---------------|---------------|-----10-9-7--|
C|---------------|---------------|---------------|-------------|
G|---------------|---------------|---------------|-------------|
C|---------------|---------------|---------------|-------------|

[CHORUS]
D|--------|----------------------| -------|------------------------|
A|---10---|----------------------|---10---|------------------------|
F|---10---|----------------------|---10---|------------------------|
C|8-- 8---|0-0--0-0--0-0--0-0--10|8-- 8---|0-0--0-0--0-0--0-0--10-7|
G|8-- 8---|0-0--0-0--0-0--0-0--10|8-- 8---|0-0--0-0--0-0--0-0--10-7|
C|8-- 8---|0-0--0-0--0-0--0-0--10|8-- 8---|0-0--0-0--0-0--0-0--10-7|

D|--------|------------|--------| -------| 
A|---10---|------------|---10---| -------| 
F|---10---|7--9--10--12|---10---| -------| 
C|8-- 8---|------------|8-- 8---|10------| 
G|8-- 8---|5--7-- 8--10|8-- 8---|10------| 
C|8-- 8---|------------|8-- 8---|10------| 

[2nd chorus                       
last measure]
D|--------|
A|--------|     
F|--------|
C|10--7---|
G|10--7---|  
C|10--7---|

[3rd chorus
last measure]
D|--------|
A|--------|     
F|--------|
C|10--11--|
G|10--11--|
C|10--11--|

[BRIDGE 1]
D|------------------------|------------------------|
A|------------------------|------------------------|
F|------------------------|------------------------|[Repeat][3x]
C|------------------------|------------------------|  
G|--------5------------5--|-------5--------3-------|
C|-0--3-5----0--3--5-6----|0--3-5----6-5-6----6-5-6|

[BRIDGE 2]
D|-----------------------------------|
A|-----------------------------------|
F|10-----10-----10-----10-----9------|[Repeat]
C| 0-0-0- 0-0-0- 0-0-0- 0-0-0-8-8-8-8|
G|-----------------------------------|
C|-----------------------------------|

D|-----------------------------------|
A|10-----10-----10-----10-----8------|
F|10-----10-----10-----10-----9------|[Repeat]
C| 0-0-0- 0-0-0- 0-0-0- 0-0-0-8-8-8-8|
G|-----------------------------------|
C|-----------------------------------|

[OUTRO]
D|--------------|       
A|------------10|       
F|------------10|[Repeat]
C|0----------- 8|  [3x] 
G|0----------- 8|       
C|0----------- 8|       

D|----------------|       
A|--------------10|       
F|7--10--9--10--10|Repeat 
C|-------------- 8|  2x   
G|5-- 8--7-- 8-- 8|       
C|0------------- 8|       

D|----------| 
A|----------| 
F|7--10--9--|
C|----------|
G|5-- 8--7--|
C|0---------|
Suggest correction
comments
print report bad tab
45 comments total. Showing first comments.
0 reply
stryker 10 Jul 04, 2004 08:00 PM

awesome tab, sounds really great

0 reply
sephiroth5789 10 Aug 07, 2004 08:00 PM

awesome tab

+2 reply
playgtr055 40 Aug 16, 2004 08:00 PM

dude this tab rocks if it just had the solo cuz im tired of playin this song and having to stop at the solo and start again cuz i suck at tabbing by ear...but good tab man.

guest
You may want to rate the tab now too:
select rating
Wanna post a correction for this tab? Suggest correction