Oops, an error
Loading. Please wait.

Sooner Or Later bass

version 2
version 2

Whole song

  • This tab is based on the original 5 string bass track that Mark Klepaski plays.
6,981 views 6 this week
4 commentsread comments
1 2 3 4 5
x 6
add to favorites
×
Save as Personal and add changes to this tab that will be seen only by you. Learn more ›
×
You can save this tab as Personal to edit and correct it or add notes. All changes will be seen only by you. Learn more »
launch autoscroll
font size
0
reset
guitar tuner
backing track
0:00
0:00
edit
Autoscroll
slow
fast
+/-
esc
set tempo
stop
-------------------------------------------------------------------------------
                      SOONER OR LATER - Breaking Benjamin
-------------------------------------------------------------------------------

Tabbed By: Samuel Mobbs
Email: bogan_bassist@hotmail.com

Tuning: Drop C (CGCF)
Tempo:  100
Scale:  C Minor

This song has already been tabbed and rated 5 stars, but I listened to it and played it 
it didn't sound right at all.

I also know that no Breaking Benjamin songs are in standard 4 string for bass... it's 
in Drop C.

I tabbed this song for a 4 string and a 5 string, depending on your bass. The 5 string 
just has the B string tuned up to C.

Anyways, enjoy and rate :)

Intro X 12

F|---------------------|
C|---------------------|
G|---------------------|
C|0-12-10-0-10-0-10-12-|

Verse X 3

F|------------------------------------------------|
C|------------------------------------------------|
G|------------------------------------------0-0~--|
C|0~----33-33-0~----33-33-0~----33-33-3~----------|

Pre-Chorus X 1

F|--------------------------------|
C|--------0~----0-----------------|
G|1~----1---------3~--3~--3-3-3333|
C|--------------------------------|

Chorus X 2

F|----------------------------------------------------------------|
C|----------------------------------------------------------------|
G|--------------------------------------------------------1-1-3-3-|
C|3-3-3-3-3-3-3-3/5-5-5-5-5-5-5-5-0-0-0-0-0-0-0-0-5-5-5-5---------|

Intro X 4

Verse X 3

Pre-Chorus Variant X 1

F|--------------------------------------------|
C|------------0~----0-0-00--------3-3-3h4-2---|
G|1~----1-1-11------------3~--3~------------3-|
C|--------------------------------------------|

Chorus X 2

Rest until last bar of the Bridge

F|-------------------------------------------------------|
C|-------------------------------------------------------|
G|-------------------------------------------------------|
C|10h12-12-0-10h12-12-0-10h12--10h12-12-0-10h12-12-0-8-8-|

Outro Chorus

F|----------------------------------------------------------------|
C|----------------------------------------------------------------|
G|--------------------------------------------------------1-1-3-3-|
C|------------------------------------------------5-5-------------|

F|----------------------------------------------------------------|
C|----------------------------------------------------------------|
G|--------------------------------------------------------1-1-3-3-|
C|3-3-3-3-3-3-3-3/5-5-5-5-5-5-5-5-0-0-0-0-0-0-0-0-5-5-5-5---------|

F|----------------------------------------------------------------|
C|----------------------------------------------------------------|
G|1-1-1-1-1-1-1-1\0-0-0-0-0-0-0-0---------------------------------|
C|--------------------------------5-5-5-5-5-5-5-5\3-3-3-3-2-2-2-2-|

F|----------------------------------------------------------------|
C|----------------------------------------------------------------|
G|1-1-1-1-1-1-1-1\0-0-0-0-0-0-0-0-------------------------0---0---|
C|--------------------------------5-5-5-5-5-5-5-5\3-3-3-3---------|

F|----------------|
C|----------------|
G|1~--------------|
C|----------------|


  _    _
 / \  | \
|   | |_/
 \_/  | \ . . . . .

If you're lazy and have a 5 string like me, you can just tune the B string up one 
and play it like this:

Intro X 12

G|---------------------|
D|---------------------|
A|---------------------|
E|---------------------|
C|0-12-10-0-10-0-10-12-|

Verse X 3

G|------------------------------------------------|
D|------------------------------------------------|
A|------------------------------------------------|
E|------------------------------------------3-3~--|
C|0~----33-33-0~----33-33-0~----33-33-3~----------|

Pre-Chorus X 1

G|--------------------------------|
D|--------------------------------|
A|--------3~----3-1~--1~--1-1-1111|
E|4~----4-------------------------|
C|--------------------------------|

Chorus X 2

G|----------------------------------------------------------------|
D|----------------------------------------------------------------|
A|------------------------------------------------------------1-1-|
E|----------------1-1-1-1-1-1-1-1-----------------1-1-1-1-4-4-----|
C|3-3-3-3-3-3-3-3-----------------0-0-0-0-0-0-0-0-----------------|

Intro X 4

Verse X 3

Pre-Chorus Variant X 1

G|--------------------------------------------------|
D|----------------------------------1--1--1h2--0----|
A|-------------3~----3-3-33-1~--1~----------------1-|
E|4~----4-4-44--------------------------------------|
C|--------------------------------------------------|

Chorus X 2

Rest until last bar of the Bridge

G|-------------------------------------------------------|
D|-------------------------------------------------------|
A|-------------------------------------------------------|
E|-------------------------------------------------------|
C|10h12-12-0-10h12-12-0-10h12--10h12-12-0-10h12-12-0-8-8-|

Outro Chorus

G|----------------------------------------------------------------|
D|----------------------------------------------------------------|
A|------------------------------------------------------------1-1-|
E|------------------------------------------------1-1-----4-4-----|
C|----------------------------------------------------------------|

G|----------------------------------------------------------------|
D|----------------------------------------------------------------|
A|------------------------------------------------------------1-1-|
E|----------------1-1-1-1-1-1-1-1-----------------1-1-1-1-4-4-----|
C|3-3-3-3-3-3-3-3-----------------0-0-0-0-0-0-0-0-----------------|

G|----------------------------------------------------------------|
D|----------------------------------------------------------------|
A|----------------------------------------------------------------|
E|4-4-4-4-4-4-4-4\3-3-3-3-3-3-3-3\1-1-1-1-1-1-1-1-----------------|
C|------------------------------------------------3-3-3-3-2-2-2-2-|

G|----------------------------------------------------------------|
D|----------------------------------------------------------------|
A|----------------------------------------------------------------|
E|4-4-4-4-4-4-4-4\3-3-3-3-3-3-3-3\1-1-1-1-1-1-1-1---------3---3---|
C|------------------------------------------------3-3-3-3---------|

G|----------------|
D|----------------|
A|----------------|
E|4~--------------|
C|----------------|

Questions, comments, corrections? E-mail me at bogan_bassist@hotmail.com

| /  slide up
| \  slide down
| h  hammer-on
| p  pull-off
| ~  hold note
| +  harmonic
| x  mute note
============================================================================

            
            
Suggest correction
Creating personal tab
Creating personal tab
You can edit any tab online and save it as your Personal.

You can edit, replace or remove any tab part or add personal notes – all changes will be seen only by you.

Personal tabs can be accessed anytime from any device, even offline.
Learn more »
comments
print report bad tab
4 comments total. Showing first comments.
0 reply
Phildo64 10 Oct 12, 2006 03:59 AM

finally, somebody tabs a tab for lazy ppl who dont like to constantly tune down to play a band. ^^

0 reply
KRYOS 10 Oct 12, 2006 09:46 PM

man i luv dis song woot good tab *****

0 reply
guke4u 10 Jun 07, 2007 10:53 AM

nice!

guest
You may want to rate the tab now too:
select rating
Wanna post a correction for this tab? Suggest correction