Oops, an error
Loading. Please wait.

The Great Divide intro tab

version 1
version 1

Intro

Whole song

957 views 1 this week
3 commentsread comments
1 2 3 4 5
x 3
add to favorites
×
Save as Personal and add changes to this tab that will be seen only by you. Learn more ›
×
You can save this tab as Personal to edit and correct it or add notes. All changes will be seen only by you. Learn more »
launch autoscroll
font size
0
reset
how to read this tab
guitar tuner
edit
Autoscroll
slow
fast
+/-
esc
set tempo
stop
Breaking Benjamin - The Great Divide (Intro Only)

Tuning (low to high): Bb F Bb Eb G C

Guitar 1
C |---------------------------------------------|
G |---------------------------------------------|
Eb|---------------------------------------------|
Bb|-------------------------------------3-3-3---|
F |-----------------------------3p2-----3-3-3---|
Bb|-0h2-0h2-0h2-3p2-0h2-0h2-0h2-----0h2-3-3-3---|

Guitar 2
C |-0-------------------------------------------|
G |-0-------------------------------------------|
Eb|-x---LET RING--------------------------------|
Bb|-2-------------------------------------------|
F |---------------------------------------------|
Bb|---------------------------------------------|

Guitar 1
C |---------------------------------------------|
G |---------------------------------------------|
Eb|---------------------------------------------|
Bb|---------------------------------------------|
F |-------------------------------------------8-|
Bb|-0h2-0h2-0h2-3p2-0h2-0h2-0h2-5p2-0h2-3-s-9---|

Guitar 2
Guitar 2
C |-0-------------------------------------------|
G |-0-------------------------------------------|
Eb|-x---LET RING--------------------------------|
Bb|-2-------------------------------------------|
F |---------------------------------------------|
Bb|---------------------------------------------|

Guitar 1
C |---------------------------------------------|
G |---------------------------------------------|
Eb|---------------------------------------------|
Bb|-------------------------------------3-3-3---|
F |-----------------------------3p2-----3-3-3---|
Bb|-0h2-0h2-0h2-3p2-0h2-0h2-0h2-----0h2-3-3-3---|

Guitar 2
C |-0-------------------------------------------|
G |-0-------------------------------------------|
Eb|-x---LET RING--------------------------------|
Bb|-2-------------------------------------------|
F |---------------------------------------------|
Bb|---------------------------------------------|

Guitar 1
C |---------------------------------------------|
G |---------------------------------------------|
Eb|---------------------------------------------|
Bb|---------------------------------------------|
F |-------------------------------------2s3-2---|
Bb|-0h2-0h2-0h2-3p2-0h2-0h2-0h2-5p2-0h2-------5-|

Guitar 2
C |-0-------------------------------------------|
G |-0-------------------------------------------|
Eb|-x---LET RING--------------------------------|
Bb|-2-------------------------------------------|
F |---------------------------------------------|
Bb|---------------------------------------------|


            
            
Suggest correction
Creating personal tab
Creating personal tab
You can edit any tab online and save it as your Personal.

You can edit, replace or remove any tab part or add personal notes – all changes will be seen only by you.

Personal tabs can be accessed anytime from any device, even offline.
Learn more »
Give kudos to tab author, rate the tab!
1 2 3 4 5
comments
print report bad tab
3 comments total.
-1 reply
mtruitt1188 10 Jun 27, 2015 07:08 AM

Tab incomplete. its just the intro not the full song... when i play a song i want to be able to play the whole thing not just the entro

0 reply
incubosity 1,595 Jun 28, 2015 02:03 PM

mtruitt....it is SUPPOSED to be an INTRO only tab. Look at the top heading! SMH dude. Really??!!

0 reply
toateridax2010 74 Jul 17, 2015 03:06 PM

THINK it sounds right, but I'm pretty sure that 0h2 0h3 etc. is played across the three bottom stings.

guest
You may want to rate the tab now too:
select rating
Wanna post a correction for this tab? Suggest correction