Oops, an error
Loading. Please wait.

The Great Divide tab

version 1
version 1

Whole song

3,623 views 9 this week
3 commentsread comments
1 2 3 4 5
x 6
add to favorites
×
Save as Personal and add changes to this tab that will be seen only by you. Learn more ›
×
You can save this tab as Personal to edit and correct it or add notes. All changes will be seen only by you. Learn more »
launch autoscroll
font size
0
reset
how to read this tab
guitar tuner
edit
Autoscroll
slow
fast
+/-
esc
set tempo
stop
Tabbed by: Soarstaraptor


Breaking Benjamin - The Great Divide 'Tab'

NOTE: This is not a perfect tab, it is just a hint on how it's played. Not everything may be correct.
If they were to play this live, I will take notes. Thank you for understanding!


The Great Divide is a new Breaking Benjamin song off their new album "Dark Before Dawn". Here ya go!


Tuning: Drop Bb

NOTE: 
- There may be three guitars (acoustic), but I will narrow it down to two guitars: One Rhythm and Lead.
- There is wah in the bridge but too vague to figure out, so I did what I could and heard.


INTRO:
Guitar 1 Rhythm: (0:00)
C-----------------------------------------------|
G-----------------------------------------------|
D#----------------------------------------------|
A#-------------------------------------3--3--3--|
F--0h2p0h2-0h2h3p2p0h2-0h2-0h2-3p2-----3--3--3--|
A#-0h2p0h2-0h2h3p2p0h2-0h2-0h2-----0h2-3--3--3--|

Guitar 2 (0:00)
C--0------------|
G--0------------|
D#--------------|
A#--------------|
F---------------|
A#--------------|

Guitar 1 Rhythm: (0:04)
C-----------------------------------------------|
G-----------------------------------------------|
D#----------------------------------------------|
A#----------------------------------------------|
F--0h2p0h2-0h2h3p2p0h2-0h2-0h2---------------8--|
A#-0h2p0h2-0h2h3p2p0h2-0h2-0h2-5p2-0h2--3-/9----|


Guitar 2 Lead: (0:04)
C--0------------|
G--0------------|
D#--------------|
A#--------------|
F---------------|
A#--------------|

Guitar 1 Rhythm: (0:08)
C-----------------------------------------------|
G-----------------------------------------------|
D#----------------------------------------------|
A#-------------------------------------3--3--3--|
F--0h2p0h2-0h2h3p2p0h2-0h2-0h2-3p2-----3--3--3--|
A#-0h2p0h2-0h2h3p2p0h2-0h2-0h2-----0h2-3--3--3--|

Guitar 2 Lead: (0:08)
C--0------------|
G--0------------|
D#--------------|
A#--------------|
F---------------|
A#--------------|

Guitar 1 Rhythm: (0:13)
C-----------------------------------------------|
G-----------------------------------------------|
D#----------------------------------------------|
A#----------------------------------------------|
F--0h2p0h2-0h2h3p2p0h2-0h2-0h2----------3--2----|
A#-0h2p0h2-0h2h3p2p0h2-0h2-0h2-5p2-0h2--------5-|


VERSE:
Guitar 1 Rhythm: (0:18) Less Distortion
C--0------------------------------------------------------------------|
G--0------------------------------------------------------------------|
D#-x------------------------------------------------------------------|
A#-2------------5----------------------------------5------------------|
F--2------------3------0-----------2---------------3----------0-------|
A#-2-------------------0-----------2--------------------------0-------|
       Carry me all... through the night, I am the last light fading..

Guitar 2 Lead: (0:18) Clean (Repeat throughout Verse)
C---------------------------------------------------------------------|
G-----0-----------0-------------------0---------------0---------------|
D#-------0----------0-----0--------------0---------------0----------0-|
A#-2-------------------------4-----2-----------------------------4----|
F---------------3----------------------------------3------------------|
A#---------------------0--------------------------------------0-------|

Guitar 1 Rhythm: (0:26)
C-------------------------------------------------------------------------|
G-------------------------------------------------------------------------|
D#------------------------------------------------------------------------|
A#--------------------5-----------------------------------5---------------|
F--2------------------3------0----------2-----------------3-------0-------|
A#-2-------------------------0----------2-------------------------0-------|
       Leave all the lost... souls... behind, show me the silence breaking..

Guitar 2 Lead: (0:26)
C---------------------------------------------------------------------|
G-----0-----------0-------------------0---------------0---------------|
D#-------0----------0-----0--------------0---------------0----------0-|
A#-2-------------------------4-----2-----------------------------4----|
F---------------3----------------------------------3------------------|
A#---------------------0--------------------------------------0-------|

Guitar 1 Rhythm: (0:34)
C-----------------------------------------------------------------------------------|
G-----------------------------------------------------------------------------------|
D#----------------------------------------------------------------------------------|
A#------------------------5------------------------------------5--------------------|
F--0--2--2--0--2----------3--------0--------0--2--2--0--2------3----------0---------|
A#-0--2--2--0--2-------------------0--------0--2--2--0--2-----------------0---------|
   *  *  *  *  *                            *  *  *  *  *
            And when your lost and out.. of time,    I will be right here waiting..

Guitar 2 Lead: (0:34)
C---------------------------------------------------------------------|
G-----0-----------0-------------------0---------------0---------------|
D#-------0----------0-----0--------------0---------------0----------0-|
A#-2-------------------------4-----2-----------------------------4----|
F---------------3----------------------------------3------------------|
A#---------------------0--------------------------------------0-------|

Guitar 1 Rhythm: (0:43)
C-----------------------------------------------------------------------------|
G-----------------------------------------------------------------------------|
D#----------------------------------------------------------------------------|
A#------------------------5-----------------------------------5---------------|
F--0--2--2--0--2----------3--------0-------0--2--2--0--2------3-----0---------|
A#-0--2--2--0--2-------------------0-------0--2--2--0--2------------0---------|
   *  *  *  *  *                           *  *  *  *  *
            And when your dreams return to life,    I'll be forever fading!

Guitar 2 Lead: (0:43)
C---------------------------------------------------------------------|
G-----0-----------0-------------------0---------------0---------------|
D#-------0----------0-----0--------------0---------------0----------0-|
A#-2-------------------------4-----2-----------------------------4----|
F---------------3----------------------------------3------------------|
A#---------------------0--------------------------------------0-------|

PRE-CHORUS:
Guitar 1 Rhythm: (0:51)
C---------------------------------|
G---------------------------------|
D#--------------------------------|
A#-5-----------------------X-X----|
F--3-----------------------X-X----|
A#-------------------------X-X----|
         And we'll fall... behind!

Guitar 2 Lead: (0:51)
C---------------------------------|
G------0-------------3------------|
D#---------0------------0---------|
A#--------------------------------|
F--3-------------3----------------|
A#--------------------------------|


CHORUS:
Guitar 1 Rhythm: (0:55)
C--------------------------------------------------------------------------------|
G--------------------------------------------------------------------------------|
D#-------------------------------------------------------------5--5--5--5--5--5--|
A#-5--5--5--5--5--5----7--7--7--7--7--7----2--2--2--2--2--2----5--5--5--5--5--5--|
F--5--5--5--5--5--5----5--5--5--5--5--5----2--2--2--2--2--2----3--3--3--3--3--3--|
A#-5--5--5--5--5--5----4--4--4--4--4--4----2--2--2--2--2--2----------------------|
         So I'll wait for you, as I keep your faith alive!

Guitar 2 Lead: (0:55)
C--------------------------------------------------------------------------------|
G--8-------------------10------------------12------------------13-------15-------|
D#-x-x12---------------x--x12--------------x--x12--------------x--x6----x--x6----|
A#-5-------------------7-------------------9-------------------10-------12-------|
F--------------------------------------------------------------------------------|
A#-------------------------------------------------------------------------------|

Guitar 1 Rhythm: (1:04)
C--------------------------------------------------------------------------------|
G--------------------------------------------------------------------------------|
D#-------------------------------------------------------------5--5--5--5--5--5--|
A#-5--5--5--5--5--5----7--7--7--7--7--7----2--2--2--2--2--2----5--5--5--5--5--5--|
F--5--5--5--5--5--5----5--5--5--5--5--5----2--2--2--2--2--2----3--3--3--3--3--3--|
A#-5--5--5--5--5--5----4--4--4--4--4--4----2--2--2--2--2--2----------------------|
         And I'll pray for you, as we cross the great divide!

Guitar 2 Lead: (1:04)
C--------------------------------------------------------------------------------|
G--8-------------------10------------------12------------------13-------15-------|
D#-x-x12---------------x--x12--------------x--x12--------------x--x6----x--x6----|
A#-5-------------------7-------------------9-------------------10-------12-------|
F--------------------------------------------------------------------------------|
A#-------------------------------------------------------------------------------|

POST-CHORUS:
Guitar 1 Rhythm: (1:13)
C-----------------------------------------------|
G-----------------------------------------------|
D#----------------------------------------------|
A#-------------------------------------3--3--3--|
F--0h2p0h2-0h2h3p2p0h2-0h2-0h2-3p2-----3--3--3--|
A#-0h2p0h2-0h2h3p2p0h2-0h2-0h2-----0h2-3--3--3--|

Guitar 2 Lead: (1:13)
C--0------------|
G--0------------|
D#--------------|
A#--------------|
F---------------|
A#--------------|

Guitar 1 Rhythm: (1:17)
C-----------------------------------------------|
G-----------------------------------------------|
D#----------------------------------------------|
A#----------------------------------------------|
F--0h2p0h2-0h2h3p2p0h2-0h2-0h2----------3--2----|
A#-0h2p0h2-0h2h3p2p0h2-0h2-0h2-5p2-0h2--------5-|


VERSE 2:
Guitar 1 Rhythm: (1:21) Less Distortion
C--0------------------------------------------------------------------|
G--0------------------------------------------------------------------|
D#-x------------------------------------------------------------------|
A#-2------------5----------------------------------5------------------|
F--2------------3------0-----------2---------------3----------0-------|
A#-2-------------------0-----------2--------------------------0-------|
       Bury the wounds deep inside, rupture the fault like breaking..

Guitar 2 Lead: (1:21) Clean (Repeat throughout Verse)
C---------------------------------------------------------------------|
G-----0-----------0-------------------0---------------0---------------|
D#-------0----------0-----0--------------0---------------0----------0-|
A#-2-------------------------4-----2-----------------------------4----|
F---------------3----------------------------------3------------------|
A#---------------------0--------------------------------------0-------|

Guitar 1 Rhythm: (1:30)
C-------------------------------------------------------------------------|
G-------------------------------------------------------------------------|
D#------------------------------------------------------------------------|
A#--------------------5-----------------------------------5---------------|
F--2------------------3------0----------2-----------------3-------0-------|
A#-2-------------------------0----------2-------------------------0-------|
       Dream of a world left behind, show us we're worth forsaking..

Guitar 2 Lead: (1:30)
C---------------------------------------------------------------------|
G-----0-----------0-------------------0---------------0---------------|
D#-------0----------0-----0--------------0---------------0----------0-|
A#-2-------------------------4-----2-----------------------------4----|
F---------------3----------------------------------3------------------|
A#---------------------0--------------------------------------0-------|

Guitar 1 Rhythm: (1:39)
C-----------------------------------------------------------------------------------|
G-----------------------------------------------------------------------------------|
D#----------------------------------------------------------------------------------|
A#------------------------5------------------------------------5--------------------|
F--0--2--2--0--2----------3--------0--------0--2--2--0--2------3----------0---------|
A#-0--2--2--0--2-------------------0--------0--2--2--0--2-----------------0---------|
   *  *  *  *  *                            *  *  *  *  *
            And when the cold begins to rise, darkness is overtaking..

Guitar 2 Lead: (1:39)
C---------------------------------------------------------------------|
G-----0-----------0-------------------0---------------0---------------|
D#-------0----------0-----0--------------0---------------0----------0-|
A#-2-------------------------4-----2-----------------------------4----|
F---------------3----------------------------------3------------------|
A#---------------------0--------------------------------------0-------|

Guitar 1 Rhythm: (1:47)
C-----------------------------------------------------------------------------|
G-----------------------------------------------------------------------------|
D#----------------------------------------------------------------------------|
A#------------------------5-----------------------------------5---------------|
F--0--2--2--0--2----------3--------0-------0--2--2--0--2------3-----0---------|
A#-0--2--2--0--2-------------------0-------0--2--2--0--2------------0---------|
   *  *  *  *  *                           *  *  *  *  *
            And when the fear is satisfied, I'll be forever changing..

Guitar 2 Lead: (1:47)
C---------------------------------------------------------------------|
G-----0-----------0-------------------0---------------0---------------|
D#-------0----------0-----0--------------0---------------0----------0-|
A#-2-------------------------4-----2-----------------------------4----|
F---------------3----------------------------------3------------------|
A#---------------------0--------------------------------------0-------|


PRE-CHORUS:
Guitar 1 Rhythm: (1:56)
C---------------------------------|
G---------------------------------|
D#--------------------------------|
A#-5-----------------------X-X----|
F--3-----------------------X-X----|
A#-------------------------X-X----|
         As we all realize!

Guitar 2 Lead: (1:56)
C---------------------------------|
G------0-------------3------------|
D#---------0------------0---------|
A#--------------------------------|
F--3-------------3----------------|
A#--------------------------------|

CHORUS 2:
Guitar 1 Rhythm: (2:00)
C--------------------------------------------------------------------------------|
G--------------------------------------------------------------------------------|
D#-------------------------------------------------------------5--5--5--5--5--5--|
A#-5--5--5--5--5--5----7--7--7--7--7--7----2--2--2--2--2--2----5--5--5--5--5--5--|
F--5--5--5--5--5--5----5--5--5--5--5--5----2--2--2--2--2--2----3--3--3--3--3--3--|
A#-5--5--5--5--5--5----4--4--4--4--4--4----2--2--2--2--2--2----------------------|
         So I'll wait for you, as I keep your faith alive!

Guitar 2 Lead: (2:00)
C--------------------------------------------------------------------------------|
G--8-------------------10------------------12------------------13-------15-------|
D#-x-x12---------------x--x12--------------x--x12--------------x--x6----x--x6----|
A#-5-------------------7-------------------9-------------------10-------12-------|
F--------------------------------------------------------------------------------|
A#-------------------------------------------------------------------------------|

Guitar 1 Rhythm: (2:09)
C--------------------------------------------------------------------------------|
G--------------------------------------------------------------------------------|
D#-------------------------------------------------------------5--5--5--5--5--5--|
A#-5--5--5--5--5--5----7--7--7--7--7--7----2--2--2--2--2--2----5--5--5--5--5--5--|
F--5--5--5--5--5--5----5--5--5--5--5--5----2--2--2--2--2--2----3--3--3--3--3--3--|
A#-5--5--5--5--5--5----4--4--4--4--4--4----2--2--2--2--2--2----------------------|
         And I'll pray for you, as we cross the great divide!

Guitar 2 Lead: (2:09)
C--------------------------------------------------------------------------------|
G--8-------------------10------------------12------------------13-------15-------|
D#-x-x12---------------x--x12--------------x--x12--------------x--x6----x--x6----|
A#-5-------------------7-------------------9-------------------10-------12-------|
F--------------------------------------------------------------------------------|
A#-------------------------------------------------------------------------------|

Guitar 1 Rhythm: (2:17)
C------------------------------------------------------------------------------|
G------------------------------------------------------------------------------|
D#--------------------------------4----5--5--5--5--5--5------------------------|
A#-2--2--2--2--2--2----0--0--0----5----5--5--5--5--5--5----5--5--5----7--7--7--|
F--2--2--2--2--2--2----0--0--0----2----3--3--3--3--3--3----5--5--5----5--5--5--|
A#-2--2--2--2--2--2----0--0--0-----------------------------5--5--5----4--4--4--|
               And I'll break for you as I open up the sky!

Guitar 2 Lead: (2:17)
C------------------------------------------------7--------------------7--------|
G--8--8--8--8--8--8----8--8--8----8----------8------8------------8----------8--|
D#-x--x--x--x--x--x----x--x--x----x--------------------------------------------|
A#-5--5--5--5--5--5----5--5--5----5----5-------------------5-------------------|
F------------------------------------------------------------------------------|
A#-----------------------------------------------------------------------------|

Guitar 1 Rhythm: (2:26)
C------------------------------------------------------------------------------|
G------------------------------------------------------------------------------|
D#--------------------------------4----5--5--5--5--5--5------------------------|
A#-2--2--2--2--2--2----0--0--0----5----5--5--5--5--5--5----5--5--5----7--7--7--|
F--2--2--2--2--2--2----0--0--0----2----3--3--3--3--3--3----5--5--5----5--5--5--|
A#-2--2--2--2--2--2----0--0--0-----------------------------5--5--5----4--4--4--|
               And I'll stay for you, as we cross the great divide!

Guitar 2 Lead: (2:26)
C------------------------------------------------7--------------------7--------|
G--8--8--8--8--8--8----8--8--8----8----------8------8------------8----------8--|
D#-x--x--x--x--x--x----x--x--x----x--------------------------------------------|
A#-5--5--5--5--5--5----5--5--5----5----5-------------------5-------------------|
F------------------------------------------------------------------------------|
A#-----------------------------------------------------------------------------|

BRIDGE:
Guitar 1 Rhythm: (2:34)
C----------------------------------------------------------------------------------|
G----------------------------------------------------------------------------------|
D#---------------------------------------------------------------------------------|
A#-1--1--1--1--1--1----3--3--3--3--3--3----5--5--5--5--5--5------------------------|
F--1--1--1--1--1--1----3--3--3--3--3--3----5--5--5--5--5--5-------0--1--1/3--1--0--|
A#-1--1--1--1--1--1----3--3--3--3--3--3----5--5--5--5--5--5----5-------------------|
            Follow the sunlight down!

Guitar 2 Lead: (2:34) Distortion/ Wah Effect
C--------------------------------------------------------------|
G--------------------------------------------------------------|
D#-7--7--7--12-12-12---14-14-14-14-14-14---12-12-12-12-12-12---|
A#-x--x--x--x--x--x----x--x--x--x--x--x----x--x--x--x--x--x----|
F--5--5--5--10-10-10---12-12-12-12-12-12---10-10-10-10-10-10---|
A#-------------------------------------------------------------|

Guitar 1 Rhythm: (2:43)
C----------------------------------------------------------------------------------|
G----------------------------------------------------------------------------------|
D#---------------------------------------------------------------------------------|
A#-1--1--1--1--1--1----3--3--3--3--3--3----5--5--5--5--5--5------------------------|
F--1--1--1--1--1--1----3--3--3--3--3--3----5--5--5--5--5--5-------0--1--1/3--1--0--|
A#-1--1--1--1--1--1----3--3--3--3--3--3----5--5--5--5--5--5----5-------------------|
            Cry clear and loud!

Guitar 2 Lead: (2:43) Wah
C--------------------------------------------------------------|
G--------------------------------------------------------------|
D#-7--7--7--12-12-12---14-14-14-14-14-14---12-12-12-12-12-12---|
A#-x--x--x--x--x--x----x--x--x--x--x--x----x--x--x--x--x--x----|
F--5--5--5--10-10-10---12-12-12-12-12-12---10-10-10-10-10-10---|
A#-------------------------------------------------------------|


Guitar 1 Rhythm: (2:52)
C----------------------------------------------------------------------------------|
G----------------------------------------------------------------------------------|
D#---------------------------------------------------------------------------------|
A#-1--1--1--1--1--1----3--3--3--3--3--3----5--5--5--5--5--5------------------------|
F--1--1--1--1--1--1----3--3--3--3--3--3----5--5--5--5--5--5-------0--1--1/3--1--0--|
A#-1--1--1--1--1--1----3--3--3--3--3--3----5--5--5--5--5--5----5-------------------|
            Heaven won't help us now!                                        But it's..

Guitar 2 Lead: (2:52) Wah
C--------------------------------------------------------------|
G--------------------------------------------------------------|
D#-7--7--7--12-12-12---14-14-14-14-14-14---12-12-12-12-12-12---|
A#-x--x--x--x--x--x----x--x--x--x--x--x----x--x--x--x--x--x----|
F--5--5--5--10-10-10---12-12-12-12-12-12---10-10-10-10-10-10---|
A#-------------------------------------------------------------|


Guitar 1 Rhythm: (3:00)
C------------------------------------------------------------------------------|
G------------------------------------------------------------------------------|
D#-----------------------------------------------------------------------------|
A#-1--1--1--1--1--1--1--1--1--1--1--1----3--3--3--3--3--3--3--3--3--3--3--3----|
F--1--1--1--1--1--1--1--1--1--1--1--1----3--3--3--3--3--3--3--3--3--3--3--3----|
A#-1--1--1--1--1--1--1--1--1--1--1--1----3--3--3--3--3--3--3--3--3--3--3--3----|
   Better this way, warm light wash me away..

Guitar 2 Lead: (3:00) Wah
C------------------------------------------------------------------------------|
G------------------------------------------------------------------------------|
D#-12-12-12-12-12-12-15-15-15-14-14-14---10-10-10-10-10-10-10-10-10-10-10-10---|
A#-x--x--x--x--x--x--x--x--x--x--x--x----x--x--x--x--x--x--x--x--x--x--x--x----|
F--10-10-10-10-10-10-13-13-13-12-12-12---8--8--8--8--8--8--8--8--8--8--8--8----|
A#-----------------------------------------------------------------------------|

CHORUS 3:

Fill in for the acoustic part of this Chorus. Played in Eb.

Guitar 1 Rhythm: (3:23)
C--------------------------------|
G--------------------------------|
D#--------5--5-------5--5--------|
A#--------5--5--X--X-5--5--X-X-X-|
F---------3--3--X--X-3--3--X-X-X-|
A#--------------X--X-------X-X-X-|
    As we cross the great divide!

Guitar 1 Rhythm: (3:26)
C--------------------------------------------------------------------------------|
G--------------------------------------------------------------------------------|
D#-------------------------------------------------------------5--5--5--5--5--5--|
A#-5--5--5--5--5--5----7--7--7--7--7--7----2--2--2--2--2--2----5--5--5--5--5--5--|
F--5--5--5--5--5--5----5--5--5--5--5--5----2--2--2--2--2--2----3--3--3--3--3--3--|
A#-5--5--5--5--5--5----4--4--4--4--4--4----2--2--2--2--2--2----------------------|
               And I'll break for you as I open up the sky!

Guitar 2 Lead: (3:26)
C------------------------------------------------7--------------------7--------|
G--8--8--8--8--8--8----8--8--8----8----------8------8------------8----------8--|
D#-x--x--x--x--x--x----x--x--x----x--------------------------------------------|
A#-5--5--5--5--5--5----5--5--5----5----5-------------------5-------------------|
F------------------------------------------------------------------------------|
A#-----------------------------------------------------------------------------|

Guitar 1 Rhythm: (3:34)
C--------------------------------------------------------------------------------|
G--------------------------------------------------------------------------------|
D#-------------------------------------------------------------5--5--5--5--5--5--|
A#-5--5--5--5--5--5----7--7--7--7--7--7----2--2--2--2--2--2----5--5--5--5--5--5--|
F--5--5--5--5--5--5----5--5--5--5--5--5----2--2--2--2--2--2----3--3--3--3--3--3--|
A#-5--5--5--5--5--5----4--4--4--4--4--4----2--2--2--2--2--2----------------------|
               And I'll stay for you, as we cross the great divide! 

Guitar 2 Lead: (3:34)
C------------------------------------------------7--------------------7--------|
G--8--8--8--8--8--8----8--8--8----8----------8------8------------8----------8--|
D#-x--x--x--x--x--x----x--x--x----x--------------------------------------------|
A#-5--5--5--5--5--5----5--5--5----5----5-------------------5-------------------|
F------------------------------------------------------------------------------|
A#-----------------------------------------------------------------------------|


OUTRO:
Guitar 1 & 2 (BOTH)
C-----------------------------------------------|
G-----------------------------------------------|
D#----------------------------------------------|
A#-------------------------------------3--------|
F--0h2p0h2-0h2h3p2p0h2-0h2-0h2-3p2--------2-----|
A#-0h2p0h2-0h2h3p2p0h2-0h2-0h2-----0h2-------5--|

C---------------------------------------------------|
G---------------------------------------------------|
D#--------------------------------------------------|
A#-X-3--x-3----5-3--x-3---0-3--x-3-------------0h3--|
F--X-3--x-3----5-3--x-3---0-3--x-3------------------|
A#-X-3--x-3----5-3--x-3---0-3--x-3--0--5p3-0h3------|

C--0-----|
G--0-----|
D#-x-----|
A#-2-----|
F--2-----|
A#-2-----|


That's all she wrote!


Key:
/ = slide up
\ = slide down
h = hammer on
p = pull off
+ = harmonic
x = stop note
X = dead note
* = palm mute

            
            
Suggest correction
Creating personal tab
Creating personal tab
You can edit any tab online and save it as your Personal.

You can edit, replace or remove any tab part or add personal notes – all changes will be seen only by you.

Personal tabs can be accessed anytime from any device, even offline.
Learn more »
comments
print report bad tab
3 comments total.
+1 reply
toateridax2010 74 Jul 22, 2015 06:22 AM

Seems right. Nice job dude!

+1 reply
magmarock101 43 Aug 10, 2015 10:25 PM

Awesome tab! 5 stars!

0 reply
montanaiverso 31 Sep 01, 2016 02:32 PM

Fantastic tab!!! Thanks for posting it!

guest
You may want to rate the tab now too:
select rating
Wanna post a correction for this tab? Suggest correction