Oops, an error
Loading. Please wait.

Topless intro tab

version 2
version 2

Intro

Whole song

Interactive

3,323 views 1 this week
3 commentsread comments
1 2 3 4 5
x 3
add to favorites
×
Save as Personal and add changes to this tab that will be seen only by you. Learn more ›
×
You can save this tab as Personal to edit and correct it or add notes. All changes will be seen only by you. Learn more »
launch autoscroll
font size
0
reset
how to read this tab
guitar tuner
edit
Autoscroll
slow
fast
+/-
esc
set tempo
stop
Breaking Benjamin - Topless (Intro)
Phobia - Track #8

Tuning Drop D 1/2 step down

LR = let ring
.  = palm mute

Both Guitars - Heavy Distortion throughout
                                                . .
Eb|--------------------------------------------------|
Bb|--------------------------------------------------|
Gb|--------------------------------------------------|
Db|--------------------------------------------------|
Ab|---------------------------------------------2-3--|
Db|0-2-0-2-0-2-0-2p0-2-3-3-3--0-2-0-2-0-2-0-2p0-2-3--|
         
                       LR
Eb|---------------------0---------------------------|
Bb|---------------------0---------------------------|
Gb|-------------------------------------------------|
Db|0-2-0-2-0-2-0-2p0-2-33----0-2-0-2-0-2-0-2p0-2-3--|
Ab|0-2-0-2-0-2-0-2p0-2-33----0-2-0-2-0-2-0-2p0-2-3--|
Db|0-2-0-2-0-2-0-2p0-2-33----0-2-0-2-0-2-0-2p0-2-3--|

                             . . . . . .
Eb|---------------------0-----------------------5*-|
Bb|---------------------0-------------------5*-----|
Gb|---------------------------------------5*--5*---|
Db|0-2-0-2-0-2-0-2p0-2-33----0-2-0-2-0-2-----------|
Ab|0-2-0-2-0-2-0-2p0-2-33----0-2-0-2-0-2-----------|
Db|0-2-0-2-0-2-0-2p0-2-33----0-2-0-2-0-2-----------|
Suggest correction
Creating personal tab
Creating personal tab
You can edit any tab online and save it as your Personal.

You can edit, replace or remove any tab part or add personal notes – all changes will be seen only by you.

Personal tabs can be accessed anytime from any device, even offline.
Learn more »
Give kudos to tab author, rate the tab!
1 2 3 4 5
comments
print report bad tab
3 comments total.
-1 reply
I-Z 214 Aug 03, 2006 09:48 AM

how are we suppose to check them out if we don't know what the song sounds like bcuz i would

0 reply
incubosity 1,595 Aug 03, 2006 04:43 PM

have you ever heard of Limewire???

0 reply
RockN'Roller732 10 May 27, 2009 12:20 PM

good tab 5/5
The tuning is called Drop C# or Drop Db just so you know

guest
You may want to rate the tab now too:
select rating
Wanna post a correction for this tab? Suggest correction