Oops, an error
Loading. Please wait.

Topless tab

version 1
version 1

Whole song

Interactive

11,600 views 6 this week
15 commentsread comments
1 2 3 4 5
x 8
add to favorites
×
Save as Personal and add changes to this tab that will be seen only by you. Learn more ›
×
You can save this tab as Personal to edit and correct it or add notes. All changes will be seen only by you. Learn more »
launch autoscroll
font size
0
reset
how to read this tab
guitar tuner
edit
Autoscroll
slow
fast
+/-
esc
set tempo
stop
“Topless” by: Breaking Benjamin
Tabbed by: Chris Gill   
Email: CGill1403@aol.com        

Tuning: Drop C#

Gtr1 only
D#|-------------------------------|---------------------------|
A#|-------------------------------|---------------------------|
F#|-------------------------------|---------------------------|
C#|-------------------------------|----------------------2-3--|
G#|-------------------------------|----------------------2-3--|
C#|--0-2--0-2--0-2--0-2-0-2-3-3-3-|-0-2--0-2--0-2--0-2-0-2-3--|

Gtr1 & 2
D#|-------------------------------|-12*-----------------------|
A#|-------------------------------|---------------------------|
F#|-------------------------------|---------------------------|
C#|--0-2--0-2--0-2--0-2-0-2-3-3-3-|-0-2--0-2--0-2--0-2-0-2-3--|
G#|--0-2--0-2--0-2--0-2-0-2-3-3-3-|-0-2--0-2--0-2--0-2-0-2-3--|
C#|--0-2--0-2--0-2--0-2-0-2-3-3-3-|-0-2--0-2--0-2--0-2-0-2-3--|

Gtr1 & 2
D#|-------------------------------|-12*------------------5*-|
A#|-------------------------------|------------------5*-----|
F#|-------------------------------|----------------5*--5*---|
C#|--0-2--0-2--0-2--0-2-0-2-3-3-3-|-2-2--2-2--2-2-----------|
G#|--0-2--0-2--0-2--0-2-0-2-3-3-3-|-2-2--2-2--2-2-----------|
C#|--0-2--0-2--0-2--0-2-0-2-3-3-3-|-2-2--2-2--2-2-----------|

Gtr 1 & 2
D#|----------------------|  |-------------------------------|  
A#|----------------------|  |-------------------------------|  
F#|----------------------|  |-------------------------------|  
C#|-------------------3--|x3|------------0-2--0-2-0-2-3-3-3-|x1
G#|-------------------3--|  |------------0-2--0-2-0-2-3-3-3-| 
C#|--0-2--0-2--0-2----3--|  |--0-2--0-2--0-2--0-2-0-2-3-3-3-| 
    PM____________|           PM_______|

Gtr 1 & 2
D#|--------------------------|  |---------------------------------|
A#|--------------------------|  |------------------7-7-7-8-8-8-8--|
F#|--------------------------|  |------------------x-x-x-x-x-x-x--|
C#|--2-2--2-2p0-2-2-x-x-x-3--|x3|--2-2--2-2--2-2---4-4-4-5-5-5-5--|x1
G#|--2-2--2-2p0-2-2-x-x-x-3--|  |--2-2--2-2--2-2------------------|
C#|--2-2--2-2p0-2-2-x-x-x-3--|  |--2-2--2-2--2-2------------------|

Gtr 1 & 2
D#|---------------------------------|--------------------------------------|
A#|---------------------------------|--------------------------------------|
F#|-5-5-5-5-5-5-5-5-7-7-7-7-7-7-7-7-|-9-9-9-9-9-9-9-9-12-12-12-1211111111--|
C#|-x-x-x-x-x-x-x-x-x-x-x-x-x-x-x-x-|-x-x-x-x-x-x-x-x--x--x--x--x-x-x-x-x--|
G#|-3-3-3-3-3-3-3-3-5-5-5-5-5-5-5-5-|-7-7-7-7-7-7-7-7-10-10-10-10-9-9-9-9--|
C#|---------------------------------|--------------------------------------|

Gtr1 & 2
D#|-------------------------------|-12*-----------------------|
A#|-------------------------------|---------------------------|
F#|-------------------------------|---------------------------|
C#|--0-2--0-2--0-2--0-2-0-2-3-3-3-|-0-2--0-2--0-2--0-2-0-2-3--|
G#|--0-2--0-2--0-2--0-2-0-2-3-3-3-|-0-2--0-2--0-2--0-2-0-2-3--|
C#|--0-2--0-2--0-2--0-2-0-2-3-3-3-|-0-2--0-2--0-2--0-2-0-2-3--|

Gtr 1 & 2
D#|---------------------------------|------------------------------------------------|
A#|---------------------------------|------------------------------------------------|
F#|-9-9-9-9-9-9-9-91010101010101010-|12-12-12-12-12-12-12-12-16-16-16-16-15-15-15-15-|
C#|-x-x-x-x-x-x-x-x-x-x-x-x-x-x-x-x-|-x--x--x--x--x--x--x--x--x--x--x--x--x--x--x--x-|
G#|-7-7-7-7-7-7-7-7-9-9-9-9-9-9-9-9-|10-10-10-10-10-10-10-10-14-14-14-14-12-12-12-12-|
C#|---------------------------------|------------------------------------------------|

Gtr1 & 2
D#|-------------------------------|-12*-----------------------|
A#|-------------------------------|---------------------------|
F#|-------------------------------|---------------------------|
C#|--0-2--0-2--0-2--0-2-0-2-3-3-3-|-0-2--0-2--0-2--0-2-0-2-3--|
G#|--0-2--0-2--0-2--0-2-0-2-3-3-3-|-0-2--0-2--0-2--0-2-0-2-3--|
C#|--0-2--0-2--0-2--0-2-0-2-3-3-3-|-0-2--0-2--0-2--0-2-0-2-3--|

Gtr1 & 2
D#|-------------------------------|-12*------------------5*-|
A#|-------------------------------|------------------5*-----|
F#|-------------------------------|----------------5*--5*---|
C#|--0-2--0-2--0-2--0-2-0-2-3-3-3-|-2-2--2-2--2-2-----------|
G#|--0-2--0-2--0-2--0-2-0-2-3-3-3-|-2-2--2-2--2-2-----------|
C#|--0-2--0-2--0-2--0-2-0-2-3-3-3-|-2-2--2-2--2-2-----------|

Gtr 1 & 2
D#|----------------------|  |-------------------------------|  
A#|----------------------|  |-------------------------------|  
F#|----------------------|  |-------------------------------|  
C#|-------------------3--|x3|------------0-2--0-2-0-2-3-3-3-|x1
G#|-------------------3--|  |------------0-2--0-2-0-2-3-3-3-| 
C#|--0-2--0-2--0-2----3--|  |--0-2--0-2--0-2--0-2-0-2-3-3-3-| 
    PM____________|           PM_______|

Gtr 1 & 2
D#|--------------------------|  |---------------------------------|
A#|--------------------------|  |------------------7-7-7-8-8-8-8--|
F#|--------------------------|  |------------------x-x-x-x-x-x-x--|
C#|--2-2--2-2p0-2-2-x-x-x-3--|x3|--2-2--2-2--2-2---4-4-4-5-5-5-5--|x1
G#|--2-2--2-2p0-2-2-x-x-x-3--|  |--2-2--2-2--2-2------------------|
C#|--2-2--2-2p0-2-2-x-x-x-3--|  |--2-2--2-2--2-2------------------|

Gtr 1 & 2
D#|---------------------------------|--------------------------------------|
A#|---------------------------------|--------------------------------------|
F#|-5-5-5-5-5-5-5-5-7-7-7-7-7-7-7-7-|-9-9-9-9-9-9-9-9-12-12-12-1211111111--|
C#|-x-x-x-x-x-x-x-x-x-x-x-x-x-x-x-x-|-x-x-x-x-x-x-x-x--x--x--x--x-x-x-x-x--|
G#|-3-3-3-3-3-3-3-3-5-5-5-5-5-5-5-5-|-7-7-7-7-7-7-7-7-10-10-10-10-9-9-9-9--|
C#|---------------------------------|--------------------------------------|

Gtr1 & 2
D#|-------------------------------|-12*-----------------------|
A#|-------------------------------|---------------------------|
F#|-------------------------------|---------------------------|
C#|--0-2--0-2--0-2--0-2-0-2-3-3-3-|-0-2--0-2--0-2--0-2-0-2-3--|
G#|--0-2--0-2--0-2--0-2-0-2-3-3-3-|-0-2--0-2--0-2--0-2-0-2-3--|
C#|--0-2--0-2--0-2--0-2-0-2-3-3-3-|-0-2--0-2--0-2--0-2-0-2-3--|

Gtr 1 & 2
D#|---------------------------------|------------------------------------------------|
A#|---------------------------------|------------------------------------------------|
F#|-9-9-9-9-9-9-9-91010101010101010-|12-12-12-12-12-12-12-12-16-16-16-16-15-15-15-15-|
C#|-x-x-x-x-x-x-x-x-x-x-x-x-x-x-x-x-|-x--x--x--x--x--x--x--x--x--x--x--x--x--x--x--x-|
G#|-7-7-7-7-7-7-7-7-9-9-9-9-9-9-9-9-|10-10-10-10-10-10-10-10-14-14-14-14-12-12-12-12-|
C#|---------------------------------|------------------------------------------------|

Gtr1 & 2
D#|-------------------------------|-12*-----------------------|
A#|-------------------------------|---------------------------|
F#|-------------------------------|---------------------------|
C#|--0-2--0-2--0-2--0-2-0-2-3-3-3-|-0-2--0-2--0-2--0-2-0-2-3--|
G#|--0-2--0-2--0-2--0-2-0-2-3-3-3-|-0-2--0-2--0-2--0-2-0-2-3--|
C#|--0-2--0-2--0-2--0-2-0-2-3-3-3-|-0-2--0-2--0-2--0-2-0-2-3--|

Gtr1 & 2
D#|-------------------------------|-12*-------------|
A#|-------------------------------|-----------------|
F#|-------------------------------|-----------------|
C#|--0-2--0-2--0-2--0-2-0-2-3-3-3-|-2-2--2-2--2-2\\-|
G#|--0-2--0-2--0-2--0-2-0-2-3-3-3-|-2-2--2-2--2-2\\-|
C#|--0-2--0-2--0-2--0-2-0-2-3-3-3-|-2-2--2-2--2-2\\-|

Gtr 1 & 2
D#|----------------------------------|----------------------------------|
A#|----------------------------------|----------------------------------|
F#|----------------------------------|----------------------------------|
C#|----------------------------------|----------------------------------|
G#|----------------------------------|----------------------------------|
C#|--2-0-2-0-5-0-2-0-2-0-7-0-2-0-5-0-|-22-0-2-0-5-0-2-0-2-0-7-0-2-0-5-0-|
   PM__________________________________________________________________|

Gtr 1 & 2
D#|----------------------------------|-----------------------------|
A#|----------------------------------|-----------------------------|
F#|----------------------------------|-----------------------------|
C#|----------------------------------|--------------------7-----8--|
G#|----------------------------------|--------------------7-----8--|
C#|--2-0-2-0-5-0-2-0-2-0-7-0-2-0-5-0-|-22-0-2-0-5-0-2-0-x-7---x-8--|
   PM__________________________________________________|

Gtr 1 & 2
D#|----------------------------------|----------------------------------|
A#|----------------------------------|----------------------------------|
F#|----------------------------------|----------------------------------|
C#|----------------------------------|----------------------------------| x2
G#|----------------------------------|----------------------------------|
C#|--2p0-2p0-5p0-2p0-2p0-7p0-2p0-5p0-|-22p0-2p0-5p0-2p0-2p0-7p0-2p0-5p0-|

Gtr 1 & 2
D#|----------------------------------|-------------------------------------|
A#|----------------------------------|-------------------------------------|
F#|----------------------------------|-------------------------------------|
C#|--2p0-2p0-5p0-2p0-2p0-7p0-2p0-5p0-|-22p0-2p0-5p0-2p0--7----8----5-----3-|
G#|----------------------------------|-------------------7----8----5-----3-|
C#|----------------------------------|-----------------x-7---x8---x5---x-3-|

Gtr 1
D#|----------------------------------|  |-----------------------------------------------|
A#|----------------------------------|  |-----------------------------------------------|
F#|--------------------------5-5-4-4-|  |------------------------------------17-17-16-16|
C#|--2-2-4-4-5-5-4-4-2-2-4-4---------|x2|14-14-16-16-17-17-16-16-14-14-16-16------------|x2
G#|----------------------------------|  |-----------------------------------------------|
C#|----------------------------------|  |-----------------------------------------------|
Gtr 2
D#|-----------------------|
A#|-----------------------|
F#|-----------------------|
C#|--0-2--------0-2-----3-|x4
G#|--0-2--------0-2-----3-|
C#|--0-2--------0-2-----3-|

Gtr 1 & 2
D#|---------------------------------|--------------------------------------|
A#|---------------------------------|--------------------------------------|
F#|-5-5-5-5-5-5-5-5-7-7-7-7-7-7-7-7-|-9-9-9-9-9-9-9-9-12-12-12-1211111111--|
C#|-x-x-x-x-x-x-x-x-x-x-x-x-x-x-x-x-|-x-x-x-x-x-x-x-x--x--x--x--x-x-x-x-x--|
G#|-3-3-3-3-3-3-3-3-5-5-5-5-5-5-5-5-|-7-7-7-7-7-7-7-7-10-10-10-10-9-9-9-9--|
C#|---------------------------------|--------------------------------------|
Gtr 2
D#|-----|   |-------------------------|
A#|-----|   |-------------------------|
F#|-17--|x24|-17-17-17-17-16-16-16-16-|
C#|-----|   |-------------------------|
G#|-----|   |-------------------------|
C#|-----|   |-------------------------|

Gtr1 & 2
D#|-------------------------------|-12*-----------------------|
A#|-------------------------------|---------------------------|
F#|-------------------------------|---------------------------|
C#|--0-2--0-2--0-2--0-2-0-2-3-3-3-|-0-2--0-2--0-2--0-2-0-2-3--|
G#|--0-2--0-2--0-2--0-2-0-2-3-3-3-|-0-2--0-2--0-2--0-2-0-2-3--|
C#|--0-2--0-2--0-2--0-2-0-2-3-3-3-|-0-2--0-2--0-2--0-2-0-2-3--|

Gtr 1
D#|---------------------------------|------------------------------------------------|
A#|---------------------------------|------------------------------------------------|
F#|-9-9-9-9-9-9-9-91010101010101010-|12-12-12-12-12-12-12-12-16-16-16-16-15-15-15-15-|
C#|-x-x-x-x-x-x-x-x-x-x-x-x-x-x-x-x-|-x--x--x--x--x--x--x--x--x--x--x--x--x--x--x--x-|
G#|-7-7-7-7-7-7-7-7-9-9-9-9-9-9-9-9-|10-10-10-10-10-10-10-10-14-14-14-14-12-12-12-12-|
C#|---------------------------------|------------------------------------------------|
Gtr 2
D#|-----|   |-------------------------|
A#|-----|   |-------------------------|
F#|-17--|x24|-17-17-17-17-16-16-16-16-|
C#|-----|   |-------------------------|
G#|-----|   |-------------------------|
C#|-----|   |-------------------------|

Gtr1 & 2
D#|---------------------------|---------------|
A#|---------------------------|---------------|
F#|---------------------------|---------------|
C#|--0-2--0-2--0-2--0-2-0--3--|-2-2--2-2--2-2-|
G#|--0-2--0-2--0-2--0-2-0--3--|-2-2--2-2--2-2-|
C#|--0-2--0-2--0-2--0-2-0--3--|-2-2--2-2--2-2-|


            
            
Suggest correction
Creating personal tab
Creating personal tab
You can edit any tab online and save it as your Personal.

You can edit, replace or remove any tab part or add personal notes – all changes will be seen only by you.

Personal tabs can be accessed anytime from any device, even offline.
Learn more »
comments
print report bad tab
15 comments total. Showing first comments.
0 reply
CrosseGod18 464 Jul 26, 2006 07:18 PM

Not bad man!!!! I have a tab of this song that I'm making. But this is pretty damn close. I'll give you a four and you check out mine in a few days and tell me what you think. Nice job man

0 reply
CrosseGod18 464 Aug 06, 2006 04:39 PM

I take it back man, after further review of your tab man I have to say its not that good, sorry try harder next time.

0 reply
counterfeit031 1,526 Aug 07, 2006 01:10 PM

yea once i heard the album version i realized that, many updates coming, including a Guitar pro version

guest
You may want to rate the tab now too:
select rating
Wanna post a correction for this tab? Suggest correction