Oops, an error
Loading. Please wait.

Topless tab

version 2
version 2

Whole song

Interactive

3,278 views 1 this week
3 commentsread comments
1 2 3 4 5
x 3
add to favorites
×
Save as Personal and add changes to this tab that will be seen only by you. Learn more ›
×
You can save this tab as Personal to edit and correct it or add notes. All changes will be seen only by you. Learn more »
launch autoscroll
font size
0
reset
how to read this tab
guitar tuner
edit
Autoscroll
slow
fast
+/-
esc
set tempo
stop
Author
----------------------------------------------------------------------------
                             Topless - Breaking Benjamin
----------------------------------------------------------------------------
Tabbed by: CrosseGod18
Email:crossegod@yahoo.com

Another great song by Breaking Benjamin. This is the studio version not the live track on
the net, I figured I would tab it 'cause I love this song!!!  I also have some Burn The Priest
and Kittie tabs that you may not know about, check those out too if you like those bands.

Guitar 1: Ben
Guitar 2: Aaron (I'm not a lead guitarist, but I did the best I could)

Tuning: Db Ab Db Gb Bb Eb

Intro:
Guitar 1
Eb|------------------------------------------------------------------------|
Bb|------------------------------------------------------------------------|
Gb|------------------------------------------------------------------------|
Db|----------------------------------------------2-3-----------------------|
Ab|----------------------------------------------2-3-----------------------|
Db|-0h2~-0h2-0h2-0-2-0-2h3-3-3-0h2-0h2-0h2-0-2-0-2-3-----------------------|

                                                       Guitar 2
                                             Eb|---------------------------|
                                             Bb|---------------------------|
                                             Gb|---------------------------|
                                             Db|-2-3-----------------------|
                                             Ab|-2-3-----------------------|
                                             Db|-2-3-----------------------|

Guitars 1&2
Eb|------------------------------------------------------------------------|
Bb|------------------------------------------------------------------------|
Gb|------------------------------------------------------------------------|
Db|------------------------------------------------------------------------|
Ab|-0h2-0h2-0h2-0-2-0-2h3--0h2-0h2-0h2-0-2-0-2-3--0h2-0h2-0h2-0-2-0-2h3----|
Db|-0h2-0h2-0h2-0-2-0-2h3--0h2-0h2-0h2-0-2-0-2-3--0h2-0h2-0h2-0-2-0-2h3----|

Eb|-----------------------------5--|
Bb|-------------------------5------|
Gb|-----------------------5---5----|
Db|--------------------------------|
Ab|-2-2*---2-2*---2-2*-------------|
Db|-2-2*---2-2*---2-2*-------------|
                          N N N N
Verse:
Guitar2 1&2
Eb|------------------------------------------------------------------------|
Bb|------------------------------------------------------------------------|
Gb|------------------------------------------------------------------------|
Db|-----------------3--------------------3--------------------3------------|
Ab|-0-2--0-2--0-2---3----0-2--0-2--0-2---3----0-2--0-2--0-2---3------------|
Db|-0-2--0-2--0-2---3----0-2--0-2--0-2---3----0-2--0-2--0-2---3------------|
    - -  - -  - -        - -  - -  - -        - -  - -  - -

Eb|------------------------------------------------------------------------|
Bb|------------------------------------------------------------------------|
Gb|------------------------------------------------------------------------|
Db|------------------------------------------------------------------------|
Ab|-0-2--0h2p0-2-3-0-2-0-2h3-2-0-----0-2--0h2p0-2-3--0-2-0--3--------------|
Db|-0-2--0h2p0-2-3-0-2-0-2h3-2-0-----0-2--0h2p0-2-3--0-2-0--3--------------|
    - -                              - -             - - -

Eb|------------------------------------------------------------------------|
Bb|------------------------------------------------------------------------|
Gb|------------------------------------------------------------------------|
Db|------------------------------------------------------------------------|
Ab|-0-2--0h2p0-2-3--0-2-0--3-----0-2--0h2p0-2-3--0-2-0--3------------------|
Db|-0-2--0h2p0-2-3--0-2-0--3-----0-2--0h2p0-2-3--0-2-0--3------------------|
    - -             - - -        - -             - - -

Chorus:
Guitars 1&2
Eb|------------------------------------------------------------------------|
Bb|------------------------------------------------------------------------|
Gb|--------------------------------5---5---7---7---9---9---12--12--11--11--|
Db|--------------------------------x---x---x---x---x---x---x---x---x---x---|
Ab|-2-2*--2-2*--2-2*---3~--3~--3~--3---3---5---5---7---7---10--10--9---9---|
Db|-2-2*--2-2*--2-2*-------------------------------------------------------|

Eb|------------------------------------------------------------------------|
Bb|------------------------------------------------------------------------|
Gb|------------------------------------------------------------------------|
Db|------------------------------------------------------------------------|
Ab|-0h2--0h2--0h2--0-2-0-2h3-3-3----0h2--0h2--0h2--0-2-0--2-3--------------|
Db|-0h2--0h2--0h2--0-2-0-2h3-3-3----0h2--0h2--0h2--0-2-0--2-3--------------|

Eb|------------------------------------------------------------------------|
Bb|------------------------------------------------------------------------|
Gb|-5---5---7---7---9---9---12--12--11--11---------------------------------|
Db|-x---x---x---x---x---x---x---x---x---x----------------------------------|
Ab|-3---3---5---5---7---7---10--10--9---9---0h2--0h2--0h2--0-2-0-2-3-------|
Db|-----------------------------------------0h2--0h2--0h2--0-2-0-2-3-------|

Eb|------------------------------------------------------------------------|
Bb|------------------------------------------------------------------------|
Gb|------------------------------------------------------------------------|
Db|------------------------------------------------------------------------|
Ab|-0h2--0h2--0h2--0-2-0-2-3----0h2--0h2--0h2--0-2-0-2-3-3-----------------|
Db|-0h2--0h2--0h2--0-2-0-2-3----0h2--0h2--0h2--0-2-0-2-3-3-----------------|

Eb|--------------------------------|
Bb|--------------------------------|
Gb|-----------------------------3--|
Db|--------------------------------|
Ab|-2-2*---2-2*---2-2*------3------|
Db|-2-2*---2-2*---2-2*----3---3----|
                          N N N N

Verse 2:
Guitars 1&2
Eb|------------------------------------------------------------------------|
Bb|------------------------------------------------------------------------|
Gb|------------------------------------------------------------------------|
Db|-----------------3--------------------3--------------------3------------|
Ab|-0-2--0-2--0-2---3----0-2--0-2--0-2---3----0-2--0-2--0-2---3------------|
Db|-0-2--0-2--0-2---3----0-2--0-2--0-2---3----0-2--0-2--0-2---3------------|
    - -  - -  - -        - -  - -  - -        - -  - -  - -

Eb|------------------------------------------------------------------------|
Bb|------------------------------------------------------------------------|
Gb|------------------------------------------------------------------------|
Db|------------------------------------------------------------------------|
Ab|-0-2--0h2p0-2-3-0-2-0-2h3-2-0-----0-2--0h2p0-2-3--0-2-0--3--------------|
Db|-0-2--0h2p0-2-3-0-2-0-2h3-2-0-----0-2--0h2p0-2-3--0-2-0--3--------------|
    - -                              - -             - - -

Eb|------------------------------------------------------------------------|
Bb|------------------------------------------------------------------------|
Gb|------------------------------------------------------------------------|
Db|------------------------------------------------------------------------|
Ab|-0-2--0h2p0-2-3--0-2-0--3-----0-2--0h2p0-2-3--0-2-0--3------------------|
Db|-0-2--0h2p0-2-3--0-2-0--3-----0-2--0h2p0-2-3--0-2-0--3------------------|
    - -             - - -        - -             - - -

Chorus 2:
Guitars 1&2
Eb|------------------------------------------------------------------------|
Bb|------------------------------------------------------------------------|
Gb|--------------------------------5---5---7---7---9---9---12--12--11--11--|
Db|--------------------------------x---x---x---x---x---x---x---x---x---x---|
Ab|-2-2*--2-2*--2-2*---3~--3~--3~--3---3---5---5---7---7---10--10--9---9---|
Db|-2-2*--2-2*--2-2*-------------------------------------------------------|

Eb|------------------------------------------------------------------------|
Bb|------------------------------------------------------------------------|
Gb|------------------------------------------------------------------------|
Db|------------------------------------------------------------------------|
Ab|-0h2--0h2--0h2--0-2-0-2h3-3-3----0h2--0h2--0h2--0-2-0--2-3--------------|
Db|-0h2--0h2--0h2--0-2-0-2h3-3-3----0h2--0h2--0h2--0-2-0--2-3--------------|

Eb|------------------------------------------------------------------------|
Bb|------------------------------------------------------------------------|
Gb|-5---5---7---7---9---9---12--12--11--11---------------------------------|
Db|-x---x---x---x---x---x---x---x---x---x----------------------------------|
Ab|-3---3---5---5---7---7---10--10--9---9---0h2--0h2--0h2--0-2-0-2-3-------|
Db|-----------------------------------------0h2--0h2--0h2--0-2-0-2-3-------|

Eb|------------------------------------------------------------------------|
Bb|------------------------------------------------------------------------|
Gb|------------------------------------------------------------------------|
Db|------------------------------------------------------------------------|
Ab|-0h2--0h2--0h2--0-2-0-2-3----0h2--0h2--0h2--0-2-0-2-3-3-----------------|
Db|-0h2--0h2--0h2--0-2-0-2-3----0h2--0h2--0h2--0-2-0-2-3-3-----------------|

Eb|--------------------------------|
Bb|--------------------------------|
Gb|--------------------------------|
Db|--------------------------------|
Ab|-2-2*---2-2*---2-2/-------------|
Db|-2-2*---2-2*---2-2/-------------|

Breakdown:
Guitars 1&2
Eb|----------------------------------|
Bb|----------------------------------|
Gb|----------------------------------|
Db|----------------------------------|X3
Ab|----------------------------------|
Db|-2-0-2-0-5-0-2-0-2-0-7-0-2-0-3-0--|
    - - - - - - - - - - - - - - - -

Eb|------------------------------------------------------------------------|
Bb|------------------------------------------------------------------------|
Gb|------------------------------------------------------------------------|
Db|----------------------0--7--0--8----------------------------------------|
Ab|----------------------0--7--0--8----------------------------------------|
Db|-2-0-2-0-5-0-2-0-2-0--0--7--0--8----------------------------------------|
    - - - - - - - - - -  -     -
Guitar 1&2 the first 2 times
Eb|---------------------------------|     |-----------------------------|
Bb|---------------------------------|     |-----------------------------|
Gb|---------------------------------|     |-----------------------------|
Db|---------------------------------|X4   |--0--7--0--8--0--5--0--3-----|
Ab|---------------------------------|     |--0--7--0--8--0--5--0--3-----|
Db|-2-0-2-0-5-0-2-0-2-0-7-0-2-0-3-0-|     |--0--7--0--8--0--5--0--3-----|
                                             -     -     -     -
Guitar 2   w/ wah after the second time     wah off
Eb|---------------------------------|     |-----------------------------|
Bb|---------------------------------|     |-----------------------------|
Gb|---------------------------------|     |-----------------------------|
Db|-2-0-2-0-5-0-2-0-2-0-7-0-2-0-3-0-|X2   |--0--7--0--8--0--5--0--3-----|
Ab|---------------------------------|     |--0--7--0--8--0--5--0--3-----|
Db|---------------------------------|     |--0--7--0--8--0--5--0--3-----|
                                             -     -     -     -
Guitar 1
Eb|----------------------------------------|
Bb|----------------------------------------|
Gb|----------------------------------------|
Db|-------------------------------5-5--4-4-|X4
Ab|-0-0--2-2--3-3--2-2--0-0--2-2--3-3--2-2-|
Db|-0-0--2-2--3-3--2-2--0-0--2-2-----------|

Guitar 2 w/ wah back on
Eb|-------------------------------------|
Bb|-------------------------------------|
Gb|-------------------------------------|
Db|---------------------------1010--99--|X2
Ab|-77--99--1010--99--77--99------------|
Db|-------------------------------------|

Eb|---------------------------------------------------|
Bb|-------------------------------------13-13--12-12--|
Gb|-99--11-11--12-12--11-11--99--11-11----------------|
Db|---------------------------------------------------|X2
Ab|---------------------------------------------------|
Db|---------------------------------------------------|

Outro:
Guitars 1&2    Guitar 2 turn down wah but keep it on.
Eb|-----------------------------------------|
Bb|-----------------------------------------|
Gb|-5---5---7---7---9---9---12--12--11--11--|
Db|-x---x---x---x---x---x---x---x---x---x---|
Ab|-3---3---5---5---7---7---10--10--9---9---|
Db|-----------------------------------------|

Eb|------------------------------------------------------------------------|
Bb|------------------------------------------------------------------------|
Gb|------------------------------------------------------------------------|
Db|------------------------------------------------------------------------|
Ab|-0h2--0h2--0h2--0-2-0-2h3-3-3----0h2--0h2--0h2--0-2-0--2-3--------------|
Db|-0h2--0h2--0h2--0-2-0-2h3-3-3----0h2--0h2--0h2--0-2-0--2-3--------------|

Eb|------------------------------------------------------------------------|
Bb|------------------------------------------------------------------------|
Gb|-5---5---7---7---9---9---12--12--11--11---------------------------------|
Db|-x---x---x---x---x---x---x---x---x---x----------------------------------|
Ab|-3---3---5---5---7---7---10--10--9---9---0h2--0h2--0h2--0-2-0-2-3-------|
Db|-----------------------------------------0h2--0h2--0h2--0-2-0-2-3-------|

Eb|------------------------------------------------------------------------|
Bb|------------------------------------------------------------------------|
Gb|------------------------------------------------------------------------|
Db|------------------------------------------------------------------------|
Ab|-0h2--0h2--0h2--0-2-0-2-3----0h2--0h2--0h2--0-2-0-2-3-3-----------------|
Db|-0h2--0h2--0h2--0-2-0-2-3----0h2--0h2--0h2--0-2-0-2-3-3-----------------|

Eb|---------------------|
Bb|---------------------|
Gb|---------------------|
Db|---------------------|
Ab|-2-2*---2-2*---2-2*--|
Db|-2-2*---2-2*---2-2*--|

| /  slide up
| \  slide down
| h  hammer-on
| p  pull-off
| ~  vibrato
| N  Natural Harmonic (Not a pinch, the song will sound wrong)
| -  Palm Mute
| *  Pause (Stop early, but not a palm mute)
============================================================================
Suggest correction
Creating personal tab
Creating personal tab
You can edit any tab online and save it as your Personal.

You can edit, replace or remove any tab part or add personal notes – all changes will be seen only by you.

Personal tabs can be accessed anytime from any device, even offline.
Learn more »
Give kudos to tab author, rate the tab!
1 2 3 4 5
comments
print report bad tab
3 comments total.
0 reply
CrosseGod18 464 Aug 07, 2006 06:03 AM

Sorry, first part of the breakdown is played 3 times not two.

0 reply
Phildo64 10 Aug 07, 2006 10:32 AM

u forgot a thing

Eb|----------------------0----------------------0----------------------0---|
Bb|----------------------0----------------------0----------------------0---|
Gb|------------------------------------------------------------------------|
Db|------------------------------------------------------------------------|
Ab|-0h2-0h2-0h2-0-2-0-2h3--0h2-0h2-0h2-0-2-0-2-3--0h2-0h2-0h2-0-2-0-2h3----|
Db|-0h2-0h2-0h2-0-2-0-2h3--0h2-0h2-0h2-0-2-0-2-3--0h2-0h2-0h2-0-2-0-2h3----|

0 reply
counterfeit031 1,526 Aug 07, 2006 01:04 PM

the verse is different on the album version, im going to update mine with it very soon

guest
You may want to rate the tab now too:
select rating
Wanna post a correction for this tab? Suggest correction