Oops, an error
Loading. Please wait.

Topless tab

version 3
version 3

Whole song

Interactive

1,119 views 3 this week
5 commentsread comments
1 2 3 4 5
x 4
add to favorites
×
Save as Personal and add changes to this tab that will be seen only by you. Learn more ›
×
You can save this tab as Personal to edit and correct it or add notes. All changes will be seen only by you. Learn more »
launch autoscroll
font size
0
reset
how to read this tab
guitar tuner
edit
Autoscroll
slow
fast
+/-
esc
set tempo
stop
Breaking Benjamin - Topless
Phobia - #8

Heaviest song on the new record...one of the best as well.  This is a demo song
that has been out for awhile but finally they brought it into the studio
and did an outstanding job polishing the song!!!  Enjoy!

Guitar 1 - Aaron Fincke
Guitar 2 - Ben Burnley

INTRO
Guitar 1                    Guitar 2 enters --- V
                                                ..
Eb|-------------------------------------------------|
Bb|-------------------------------------------------|
Gb|-------------------------------------------------|
Db|-------------------------------------------------|
Ab|---------------------------------------------23--|
Db|0-2-0-2-0-2-0-2-0-2-3-3-3--0-2-0-2-0-2-0-200-23--|


Both Guitars            v--guitar 1 only
Eb|---------------------0---------------------------|
Bb|---------------------0---------------------------|
Gb|-------------------------------------------------|
Db|0-2-0-2-0-2-0-2-0-2-33----0-2-0-2-2-2-0-2-0-2-3--|
Ab|0-2-0-2-0-2-0-2-0-2-33----0-2-0-2-2-2-0-2-0-2-3--|
Db|0-2-0-2-0-2-0-2-0-2-33----0-2-0-2-2-2-0-2-0-2-3--|


             Gtr.1 only-v
Eb|---------------------0-----------------------5*-|
Bb|---------------------0-------------------5*-----|
Gb|---------------------------------------5*--5*---|
Db|0-2-0-2-0-2-0-2-0-2-33----2-2-2-2-2-2-----------|
Ab|0-2-0-2-0-2-0-2-0-2-33----2-2-2-2-2-2-----------|
Db|0-2-0-2-0-2-0-2-0-2-33----2-2-2-2-2-2-----------|

VERSE
Part 1
Both Guitars
   .. . .   ..   .. . .   ..   .. . .   ..   ..
Eb|------------0-------------0-------------0-----------------------|
Bb|------------0-------------0-------------0-----------------------|
Gb|------------x-------------x-------------x-----------------------|
Db|------------3-------------3-------------3-----------------------|
Ab|02-0-2p0-22-3-02-0-2p0-22-3-02-0-2p0-22-3-02-0-2p0-22-0-2p0-2300|
Db|02-0-2p0-22-3-02-0-2p0-22-3-02-0-2p0-22-3-02-0-2p0-22-0-2p0-2300|

Part 2
Guitar 1
Eb|---------------0----------------0----------------0--------------------|
Bb|---------------0----------------0----------------0--------------------|
Gb|---------------x----------------x----------------x-------------9999999|
Db|02-0-2p0-22----3-02-0-2p0-22----3-02-0-2p0-22----3-02-02-02-0--xxxxxxx|
Ab|02-0-2p0-22-xxx3-02-0-2p0-22-xxx3-02-0-2p0-22-xxx3-02-02-02-0--7777777|
Db|02-0-2p0-22-xxx3-02-0-2p0-22-xxx3-02-0-2p0-22-xxx3-02-02-02-0---------|

Guitar 2
Eb|---------------------------------------------------------------------|
Bb|---------------------------------------------------------------------|
Gb|---------------------------------------------------------------------|
Db|02-0-2p0-22----3-02-0-2p0-22----3-02-0-2p0-22----3-02-02-02-02-0-2333|
Ab|02-0-2p0-22-xxx3-02-0-2p0-22-xxx3-02-0-2p0-22-xxx3-02-02-02-02-0-2333|
Db|02-0-2p0-22-xxx3-02-0-2p0-22-xxx3-02-0-2p0-22-xxx3-02-02-02-02-0-2333|

CHORUS
Part 1
Both Guitars
Eb|--------------------------------------------|
Bb|--------------------------------------------|
Gb|-55555555/77777777/99999999/121212/11111111-|
Db|-xxxxxxxx/xxxxxxxx/xxxxxxxx/x-x-x-/x-x-x-x--|
Ab|-33333333/55555555/77777777/101010/9-9-9-9--|
Db|--------------------------------------------|

Part 2
Both Guitars          v - Guitar 1 only
Eb|-------------------0--------------------|
Bb|-------------------0--------------------|
Gb|----------------------------------------|
Db|02-02-02-0-2-0-2-3-3--02-02-02-0-2-0-23-|
Ab|02-02-02-0-2-0-2-3-3--02-02-02-0-2-0-23-|
Db|02-02-02-0-2-0-2-3-3--02-02-02-0-2-0-23-|

Repeat Chorus Part 1
Repeat Chorus Part 2

Guitar 1 only---------v
Chorus Part 3         v
Eb|-------------------0------------------5*-|
Bb|-------------------0--------------5*-----|
Gb|--------------------------------5*--5*---|
Db|02-02-02-0-2-0-2-3-3--22-22-22-----------|
Ab|02-02-02-0-2-0-2-3-3--22-22-22-----------|
Db|02-02-02-0-2-0-2-3-3--22-22-22-----------|

VERSE
CHORUS Part 1 and 2 - 2x

then..........

Guitar 1 only---------v
Chorus Part 3         v
Eb|-------------------0----------------------------|
Bb|-------------------0----------------------------|
Gb|------------------------------------------------|
Db|02-02-02-0-2-0-2-3-3--22-22-22------------------|
Ab|02-02-02-0-2-0-2-3-3--22-22-22------------------|
Db|02-02-02-0-2-0-2-3-3--22-22-22--2-slide up >>>>-|


Bridge
Part 1
Both Guitars - Palm Mute throughout
Eb|-----------------------------------------------------|
Bb|-----------------------------------------------------|
Gb|-----------------------------------------------------|
Db|-----------------------------------------------------|
Ab|-----------------------------------------------------|
Db|2-0-2-0-5-0-2-0-2-0-7-0-2-0-5-0-220-2-0-5-0-2-0-2-0--|

Eb|-----------------------------------------------------------------|
Bb|-----------------------------------------------------------------|
Gb|-----------------------------------------------------------------|
Db|--------------------------------------------------------xx-x5-x7<|
Ab|--------------------------------------------------------xx-x5-x7<|
Eb|7-0-2-0-5-0-2-0-2-0-5-0-2-0-2-0-7-0-2-0-5-0-220-2-0-5-0-xx-x5-x7<|



Bridge - Part 2
Both Guitars
Eb|----------------------------------------------------------------|
Bb|----------------------------------------------------------------|
Gb|----------------------------------------------------------------|
Db|----------------------------------------------------------------|
Ab|----------------------------------------------------------------|
Db|2p0-2p0-5p0-2p0-2p0-7p0-2p0-5p0-2p0-2p0-5p0-2p0-2p0-7p0-2p0-5p0-|

then.....

Bridge - Part 3
Guitar 1
Eb|------------------------------------------------------------|
Bb|------------------------------------------------------------|
Gb|------------------------------------------------------------|
Db|2p0-2p0-5p0-2p0-2p0-7p0-2p0-5p0-2p0-2p0-5p0-2p0-x5-x7-x5-x3-|
Ab|------------------------------------------------x5-x7-x5-x3-|
Db|------------------------------------------------x5-x7-x5-x3-|

Guitar 2
Eb|------------------------------------------------------------|
Bb|------------------------------------------------------------|
Gb|------------------------------------------------------------|
Db|------------------------------------------------x5-x7-x5-x3-|
Ab|------------------------------------------------x5-x7-x5-x3-|
Db|2p0-2p0-5p0-2p0-2p0-7p0-2p0-5p0-2p0-2p0-5p0-2p0-x5-x7-x5-x3-|

Bridge - Part 4
Guitar 1
Eb|--------------------------------------------------------------------|
Bb|------------------------------------------------------------13131212|
Gb|----------------------------------------99111112121111991111--------|
Db|--------------101099--------------101099----------------------------|
Ab|77991010997799------77991010997799----------------------------------|
Db|--------------------------------------------------------------------|

Guitar 1 - Continued from the part right above.......
Eb|------------------------------|
Bb|--------------------13131212--|
Gb|99111112121111991111----------|
Db|------------------------------|
Ab|------------------------------|
Db|------------------------------|
Guitar 2
Eb|-------------------------------------------------------------------|
Bb|-------------------------------------------------------------------|
Gb|-------------------------------------------------------------------|
Db|0-2-x--0-2---3---0-2-x--0-2---3--0-2-x--0-2----3---0-2-x--0-2--3---|
Ab|0-2-x--0-2---3---0-2-x--0-2---3--0-2-x--0-2----3---0-2-x--0-2--3---|
Db|0-2-x--0-2---3---0-2-x--0-2---3--0-2-x--0-2----3---0-2-x--0-2--3---|



Chorus - Little diff from original chorus
Guitar 1 - I did these in groups of 8 so it wouldnt be so confusing.
                                         Let the last note echo-----v
Eb|-------------------------------------------------------------------|
Bb|1313131313131313-1313131313131313-1313131313131313-1313131312121212|
Gb|-------------------------------------------------------------------|
Db|-------------------------------------------------------------------|
Ab|-------------------------------------------------------------------|
Db|-------------------------------------------------------------------|

Guitar 2
Eb|--------------------------------------------|
Bb|--------------------------------------------|
Gb|-55555555/77777777/99999999/121212/11111111-|
Db|-xxxxxxxx/xxxxxxxx/xxxxxxxx/x-x-x-/x-x-x-x--|
Ab|-33333333/55555555/77777777/101010/9-9-9-9--|
Db|--------------------------------------------|



Both Guitars           v - Guitar 1 only
Eb|--------------------0----------------------|
Bb|--------------------0----------------------|
Gb|-------------------------------------------|
Db|0-2-0-2-0-2-0-2-0-2-3-3--0-2-0-2-0-2-0-2-3-|
Ab|0-2-0-2-0-2-0-2-0-2-3-3--0-2-0-2-0-2-0-2-3-|
Db|0-2-0-2-0-2-0-2-0-2-3-3--0-2-0-2-0-2-0-2-3-|

Guitar 1
Eb|-------------------------------------------------------------------|
Bb|1313131313131313-1313131313131313-1313131313131313-1313131312121212|
Gb|-------------------------------------------------------------------|
Db|-------------------------------------------------------------------|
Ab|-------------------------------------------------------------------|
Db|-------------------------------------------------------------------|

Guitar 2
Eb|--------------------------------------------|
Bb|--------------------------------------------|
Gb|-55555555/77777777/99999999/121212/11111111-|
Db|-xxxxxxxx/xxxxxxxx/xxxxxxxx/x-x-x-/x-x-x-x--|
Ab|-33333333/55555555/77777777/101010/9-9-9-9--|
Db|--------------------------------------------|


Both Guitars
Eb|-----------------------------------------------------------------------|
Bb|-----------------------------------------------------------------------|
Gb|-----------------------------------------------------------------------|
Db|0-2-0-2-0-2-0-2-0-3--0-2-0-2-0-2-0-3--0-2-0-2-0-2-0-2-0-3--0-2-0-2-0-2-|
Ab|0-2-0-2-0-2-0-2-0-3--0-2-0-2-0-2-0-3--0-2-0-2-0-2-0-2-0-3--0-2-0-2-0-2-|
Db|0-2-0-2-0-2-0-2-0-3--0-2-0-2-0-2-0-3--0-2-0-2-0-2-0-2-0-3--0-2-0-2-0-2-|
Suggest correction
Creating personal tab
Creating personal tab
You can edit any tab online and save it as your Personal.

You can edit, replace or remove any tab part or add personal notes – all changes will be seen only by you.

Personal tabs can be accessed anytime from any device, even offline.
Learn more »
comments
print report bad tab
5 comments total. Showing first comments.
0 reply
counterfeit031 1,526 Aug 07, 2006 01:07 PM

great job, i believe that the second time through the chorus part they play a little higher, im going to update mine with the changes, great job though 5 stars

0 reply
jaames 1,351 Aug 08, 2006 03:56 PM

How do you get these tabs so fricken close? You have a good ear, nice tab, 5. Gonna do the whole album?

0 reply
I-Z 214 Aug 13, 2006 08:47 PM

Good but isn't it in Drop Bb now..........they use to play it like that but not anymore........great tho!
i got the intro in drop Bb but i probobly wont tab it

guest
You may want to rate the tab now too:
select rating
Wanna post a correction for this tab? Suggest correction