Oops, an error
Loading. Please wait.
We have an official Unknown Soldier tab made by UG professional guitarists. Check out the tab »
×
5,321 views 1 this week
13 commentsread comments
1 2 3 4 5
x 8
add to favorites
×
Save as Personal and add changes to this tab that will be seen only by you. Learn more ›
×
You can save this tab as Personal to edit and correct it or add notes. All changes will be seen only by you. Learn more »
launch autoscroll
font size
0
reset
guitar tuner
backing track
0:00
0:00
edit
Autoscroll
slow
fast
+/-
esc
set tempo
stop
Song: Unknown Soldier
Artist: Breaking Benjamin
Album: Phobia
Tuning: Drop C (CGCF)

|==========================================================================|

Intro: x2
F|-----------------------------------|
C|-----------------------------------|
G|--------------------------------33-|
C|-8-8-88--8-8-88--0-0-00--0-0-0-----|

Verse: x3
F|--------------------------|
C|--------------------------|
G|--------------------------|
C|--0-----5-----8-----1-----|

Chorus:
F|---------------------------------------------------------------|
C|---------------------------------------------------------------|
G|-------------------------------------------------------------1-|
C|-3-3-33-3-3-33--7-7-77-7-7-77--8-8-88-8-8-88--3-3-33-3-3-33----|

Post-Chorus: (1:04)
F|---r-------------------------------|
C|---e-------------------------------|
G|---s----------------------------33-|
C|---t-----8-8-88--0-0-00--0-0-0-----|

F|-----------------------------------|
C|-----------------------------------|
G|--------------------------------33-|
C|-8-8-88--8-8-88--0-0-00--0-0-0-----|

-->Verse x3

Second Chorus: x2
F|------------------------------------------------------------|
C|------------------------------------------------------------|
G|------------------------------------------------------------|
C|-3-3-33-3-3-33--7-7-77-7-7-77--8-8-88-8-8-88--3-3-33-3-3-33-|

Bridge:
02:14
F|---------------|
C|---------------|
G|--5----7-------|
C|------------8--|

02:21
F|---------------|
C|---------------|
G|--5----0----1--|
C|---------------|

02:29
F|---------------|
C|---------------|
G|--5----3----1--|
C|---------------|

02:37
F|---------------|
C|---------------|
G|--5----0----1--|
C|---------------|

-->Play Second Chorus (2nd and 3rd Choruses are the same)

Outro:
F|----------|
C|----------|
G|----------|
C|--3-------|

|==========================================================================|
**That's it, it's a pretty straight forward and easy song. Please rate it if you can and comment on it on it.
**The bridge was tabbed by U B The Band, so credit for that part of the song goes to him. 
***Thanks for the correction.***
|==========================================================================|
| /  slide up                                                              |
| \  slide down                                                            |
| h  hammer-on                                                             |
| p  pull-off                                                              |
| ~  vibrato                                                               |
| +  harmonic                                                              |
| x  Mute note                                                             |
|==========================================================================|

            
            
Suggest correction
Creating personal tab
Creating personal tab
You can edit any tab online and save it as your Personal.

You can edit, replace or remove any tab part or add personal notes – all changes will be seen only by you.

Personal tabs can be accessed anytime from any device, even offline.
Learn more »
comments
print report bad tab
13 comments total. Showing first comments.
0 reply
U B the band 3,023 May 15, 2007 04:43 AM

In this tuning (Drop C) the basses bridge is:

Bridge: 02:14
F|---------------|
C|---------------|
G|--5----7-------|
C|------------8--|

02:21
F|---------------|
C|---------------|
G|--7----0----1--|
C|---------------|

02:29
F|---------------|
C|---------------|
G|--5----3----1--|
C|---------------|

02:37
F|---------------|
C|---------------|
G|--7----0----1--|
C|---------------|

Good job with the rest though.

0 reply
U B the band 3,023 May 15, 2007 04:50 AM

Sorry for taking up space it's really:

Bridge: 02:14
F|---------------|
C|---------------|
G|--5----7-------|
C|------------8--|

02:21
F|---------------|
C|---------------|
G|--5----0----1--|
C|---------------|

02:29
F|---------------|
C|---------------|
G|--5----3----1--|
C|---------------|

02:37
F|---------------|
C|---------------|
G|--5----0----1--|
C|---------------|

I'm tuned to Drop Bb and I tried to think of my guitar in Drop C. Sorry!

0 reply
__Ronnie__ 1,009 May 17, 2007 01:35 PM

It's okay, yeah after trying your way out its better. If you dont mind I'll copy your's in.

guest
You may want to rate the tab now too:
select rating
Wanna post a correction for this tab? Suggest correction