Oops, an error
Loading. Please wait.
We have an official Unknown Soldier tab made by UG professional guitarists. Check out the tab »
×
44,985 views 33 this week
17 commentsread comments
1 2 3 4 5
x 44
add to favorites
×
Save as Personal and add changes to this tab that will be seen only by you. Learn more ›
×
You can save this tab as Personal to edit and correct it or add notes. All changes will be seen only by you. Learn more »
launch autoscroll
font size
0
reset
how to read this tab
guitar tuner
backing track
0:00
0:00
edit
Autoscroll
slow
fast
+/-
esc
set tempo
stop
Breaking Benjamin
Unknown Soldier
tabbed by U B the band
tuning C G C F A D

Legend:
~-let ring
/-slide up
(#)-optional
brb-bend return bend
*-harmonic

Here is the Drop C version of "Unknown Soldier".

Intro guitar 1: 00:07
D|-------------------------------------------------------------|
A|-------------------------------------------------------------|
F|-------------------------------------------------------------|
C|--8--8--8--8-----8--8--8--8-----0--0--0--0-----0--0--0--5-5--|
G|--8--8--8--8-----8--8--8--8-----0--0--0--0-----0--0--0--3-3--|
C|--8--8--8--8-----8--8--8--8-----0--0--0--0-----0--0--0-------|x2

guitar 2: 00:07
D|--------5--------------5--------------5--------------5--6-5--|
A|--6--8-----5--6--6--8-----5--6--6--8-----5--6--6--8----------|
F|-----------5--7-----------5--7-----------5--7----------------|
C|-------------------------------------------------------------|
G|-------------------------------------------------------------|
C|-------------------------------------------------------------|x2

Verse 1 guitar 1: 00:23
D|----------------------------------------------------------------|
A|----------------------------------------------------------------|
F|----------------------------------------------------------------|
C|--0----5----8----1----0----5----8----1----0----5----8----1------|
G|--0----5----8----1----0----5----8----1----0----5----8----1------|
C|--0----5----8----1----0----5----8----1----0----5----8----1------|

Verse 1 guitar 2: 00:25
D|---------------------------------------------10---10---10---11--|
A|---------3----3----4----3----3----3----4---10---10---10---10----|
F|--------2----2----2----2----2----2----2-------------------------|
C|----------------------------------------------------------------|
G|----------------------------------------------------------------|
C|----------------------------------------------------------------|

Chorus guitar 1: 00:47 *play 2 times*
D|------------------------------------------------------|
A|------------------------------------------------------|
F|------------------------------------------------------|
C|--3--3--3-3----3--3--3-3----7--7--7-7----7--7--7-7----|
G|--3--3--3-3----3--3--3-3----7--7--7-7----7--7--7-7----|
C|--3--3--3-3----3--3--3-3----7--7--7-7----7--7--7-7----|

Chorus guitar 2: 00:47
D|------8------------8------------8------------8--------|
A|--6-h8---5-/6--6-h8---5-/6--6-h8---5-/6--6-h8---5-/6--|
F|------------------------------------------------------|
C|------------------------------------------------------|
G|------------------------------------------------------|
C|------------------------------------------------------|

Chorus Guitar 1: 00:55
D|------------------------------------------------------|
A|------------------------------------------------------|
F|------------------------------------------------------|
C|--8--8--8-8----8--8--8-8----3--3--3-3----3--3--3-3----|
G|--8--8--8-8----8--8--8-8----3--3--3-3----3--3--3-3----|
C|--8--8--8-8----8--8--8-8----3--3--3-3----3--3--3-3----|

Chorus guitar 2: 00:55
D|------8------------8------------8------------8--------|
A|--6-h8---5-/6--6-h8---5-/6--6-h8---5-/6--6-h8---5-/6--|
F|------------------------------------------------------|
C|------------------------------------------------------|
G|------------------------------------------------------|
C|------------------------------------------------------|

guitar 1: 01:03
D|-------------------------------------------------------------|
A|-------------------------------------------------------------|
F|-------------------------------------------------------------|
C|--8--------------8--8--8--8-----0--0--0--0-----0--0--0--5-5--|
G|--8--------------8--8--8--8-----0--0--0--0-----0--0--0--3-3--|
C|--8--------------8--8--8--8-----0--0--0--0-----0--0--0-------|

guitar 2: 01:03
D|--------5--------------5--------------5--------------5--6-5--|
A|--6--8-----5--6--6--8-----5--6--6--8-----5--6--6--8----------|
F|-----------5--7-----------5--7-----------5--7----------------|
C|-------------------------------------------------------------|
G|-------------------------------------------------------------|
C|-------------------------------------------------------------|

Guitar 1: 01:10
D|-------------------------------------------------------------|
A|-------------------------------------------------------------|
F|-------------------------------------------------------------|
C|--8--8--8--8-----8--8--8--8-----0--0--0--0-----0--0--0--5-5--|
G|--8--8--8--8-----8--8--8--8-----0--0--0--0-----0--0--0--3-3--|
C|--8--8--8--8-----8--8--8--8-----0--0--0--0-----0--0--0-------|

guitar 2: 01:10
D|--------5--------------5--------------5--------------5--6-5--|
A|--6--8-----5--6--6--8-----5--6--6--8-----5--6--6--8----------|
F|-----------5--7-----------5--7-----------5--7----------------|
C|-------------------------------------------------------------|
G|-------------------------------------------------------------|
C|-------------------------------------------------------------|

Verse 2 guitar 1: 01:18
D|----------------------------------------------------------------|
A|----------------------------------------------------------------|
F|----------------------------------------------------------------|
C|--0----5----8----1----0----5----8----1----0----5----8----1------|
G|--0----5----8----1----0----5----8----1----0----5----8----1------|
C|--0----5----8----1----0----5----8----1----0----5----8----1------|

Verse 2 guitar 2: 01:18
D|---------------------------------------------10---10---10---11--|
A|----3----3----3----4----3----3----3----4---10---10---10---10----|
F|---2----2----2----2----2----2----2----2-------------------------|
C|----------------------------------------------------------------|
G|----------------------------------------------------------------|
C|----------------------------------------------------------------|

Chorus guitar 1: 01:42/01:58 *play 2 times*
D|------------------------------------------------------|
A|------------------------------------------------------|
F|------------------------------------------------------|
C|--3--3--3-3----3--3--3-3----7--7--7-7----7--7--7-7----|
G|--3--3--3-3----3--3--3-3----7--7--7-7----7--7--7-7----|
C|--3--3--3-3----3--3--3-3----7--7--7-7----7--7--7-7----|

Chorus guitar 2: 01:42/01:58
D|------8------------8------------8------------8--------|
A|--6-h8---5-/6--6-h8---5-/6--6-h8---5-/6--6-h8---5-/6--|
F|------------------------------------------------------|
C|------------------------------------------------------|
G|------------------------------------------------------|
C|------------------------------------------------------|

Chorus Guitar 1: 01:50/02:05
D|------------------------------------------------------|
A|------------------------------------------------------|
F|------------------------------------------------------|
C|--8--8--8-8----8--8--8-8----3--3--3-3----3--3--3-3----|
G|--8--8--8-8----8--8--8-8----3--3--3-3----3--3--3-3----|
C|--8--8--8-8----8--8--8-8----3--3--3-3----3--3--3-3----|

Chorus guitar 2: 01:50/02:05
D|------8------------8------------8------------8--------|
A|--6-h8---5-/6--6-h8---5-/6--6-h8---5-/6--6-h8---5-/6--|
F|------------------------------------------------------|
C|------------------------------------------------------|
G|------------------------------------------------------|
C|------------------------------------------------------|

Bridge guitar 2: 02:15 with Delay
D|---------------------------------------10----------------------|
A|------10-----8-----11-----10-----10-----------10-----8-----11--|
F|--(7)-----7-----7------7------7------7-----7------7-----7------|
C|---------------------------------------------------------------|
G|---------------------------------------------------------------|
C|---------------------------------------------------------------|

Guitar 1: 02:14 Distorted with feed back Feedback
D|---------------------------------------------------------------|
A|---------------------------------------------------------------|
F|--7------------------------------------------------------------|
C|--0------------------------------------------------------------|
G|--8------------------------------------------------------------|
C|---------------------------------------------------------------|

Guitar 2 continued: 02:25 with Delay
D|------------------------10----10----10---------10----12----10-----|
A|-----10-----10-----8-------10----10----10-8-10----10----10--------|
F|--7------7------7-----7-------------------------------------------|
C|------------------------------------------------------------------|
G|------------------------------------------------------------------|
C|------------------------------------------------------------------|

Guitar 1: 02:37 with feedback
D|--------------------------------------------------------------13--|
A|------------------------------------------------------------------|
F|------------------------------------------------------------------|
C|------------------------------------------------------------------|
G|-------------------------------------------------3/5~~/7~/8~~-----|
C|------------------------------------------------------------------|

guitar 1: 02:44
D|------------------------------------------------------|
A|------------------------------------------------------|
F|------------------------------------------------------|
C|--3--3--3--3---3--3--3--3---7--7--7--7---7--7--7--7---|
G|--3--3--3--3---3--3--3--3---7--7--7--7---7--7--7--7---|
C|--3--3--3--3---3--3--3--3---7--7--7--7---7--7--7--7---|

Solo guitar 2: 02:45
D|------------------------------------------------------|
A|-----------13-----------13-----------13-----------13--|
F|--9brb9/10-----9brb9/10-----9brb9/10-----9brb9/10-----|
C|------------------------------------------------------|
G|------------------------------------------------------|
C|------------------------------------------------------|

Guitar 1 cont. 02:53
D|-------------------------------------------------------------------|
A|-------------------------------------------------------------------|
F|-------------------------------------------------------------------|
C|--8--8---8---8--8---8---8--8---8---8--8---3--3---3---5--5---5------|
G|--8--8---8---8--8---8---8--8---8---8--8---3--3---3---3--3---3------|
C|--8--8---8---8--8---8---8--8---8---8--8---3--3---3---3--3---3------|

Solo cont. Guitar 2 02:53
D|----------------------------------------------------8--------------|
A|--10-8-10-10brb-8---10-8-10-10brb-8---------8---8-------8---8------|
F|-----------------------------------------10--10--10--10--10--10-9--|
C|-------------------------------------------------------------------|
G|-------------------------------------------------------------------|
C|-------------------------------------------------------------------|

Chorus guitar 1: 03:01/03:16
D|------------------------------------------------------|
A|------------------------------------------------------|
F|------------------------------------------------------|
C|--3--3--3-3----3--3--3-3----7--7--7-7----7--7--7-7----|
G|--3--3--3-3----3--3--3-3----7--7--7-7----7--7--7-7----|
C|--3--3--3-3----3--3--3-3----7--7--7-7----7--7--7-7----|

Chorus guitar 2: 03:01/03:16
D|------8------------8------------8------------8--------|
A|--6-h8---5-/6--6-h8---5-/6--6-h8---5-/6--6-h8---5-/6--|
F|------------------------------------------------------|
C|------------------------------------------------------|
G|------------------------------------------------------|
C|------------------------------------------------------|

Chorus Guitar 1: 03:09/03:24
D|------------------------------------------------------|
A|------------------------------------------------------|
F|------------------------------------------------------|
C|--8--8--8-8----8--8--8-8----3--3--3-3----3--3--3-3----|
G|--8--8--8-8----8--8--8-8----3--3--3-3----3--3--3-3----|
C|--8--8--8-8----8--8--8-8----3--3--3-3----3--3--3-3----|

Chorus guitar 2: 03:09/03:24
D|------8------------8------------8------------8--------|
A|--6-h8---5-/6--6-h8---5-/6--6-h8---5-/6--6-h8---5-/6--|
F|------------------------------------------------------|
C|------------------------------------------------------|
G|------------------------------------------------------|
C|------------------------------------------------------|

guitar 2 continued: 03:32
D|------8-----------------------------------------------|
A|--6-h8------------------------------------------------|
F|------------------------------------------------------|
C|------------------------------------------------------|
G|------------------------------------------------------|
C|------------------------------------------------------|

guitar 1: 03:32
D|------------------------------------------------------|
A|------------------------------------------------------|
F|------------------------------------------------------|
C|--3---------------------------------------------------|
G|--3---------------------------------------------------|
C|--3---------------------------------------------------|

Finished!

============================================================================

Breaking Benjamin
Unknown Soldier
tabbed by U B the band
tuning Bb F Bb Eb G C

Legend
~-let ring
/-slide up
(#)-optional
h-hammer on
brb-bend return bend

Here is the Drop Bb version of "Unknown Soldier".

intro guitar 1: 00:07
 C|-------------------------------------------------------------|
 G|-------------------------------------------------------------|
Eb|--5--5--5--5-----5--5--5--5----------------------------------|
Bb|--5--5--5--5-----5--5--5--5-----2--2--2--2-----2--2--2--7-7--|
 F|--3--3--3--3-----3--3--3--3-----2--2--2--2-----2--2--2--5-5--|
Bb|--------------------------------2--2--2--2-----2--2--2-------|x2

guitar 2: 00:07
 C|-----5--7-----------5--7-----------5--7-----------5--7--8-7--|
 G|--8--------7--8--8--------7--8--8--------7--8--8-------------|
Eb|-----------7-10-----------7-10-----------7-10----------------|
Bb|-------------------------------------------------------------|
 F|-------------------------------------------------------------|
Bb|-------------------------------------------------------------|x2

Verse guitar 1: 00:23
 C|-------------------------------------------------------------------|
 G|-------------------------------------------------------------------|
Eb|-------------------------------------------------------------------|
Bb|--2----7----10----3----2----7----10----3----2----7----10----3------|
 F|--2----7----10----3----2----7----10----3----2----7----10----3------|
Bb|--2----7----10----3----2----7----10----3----2----7----10----3------|

Verse guitar 2: 00:25
 C|-----------------------------------------------12---12----12---13--|
 G|---------5-----5----6----5----5-----5----6---12---12----12---12----|
Eb|--------4-----4----5----4----4-----4----5--------------------------|
Bb|-------------------------------------------------------------------|
 F|-------------------------------------------------------------------|
Bb|-------------------------------------------------------------------|

Chorus guitar 1: 00:47
 C|------------------------------------------------------|
 G|------------------------------------------------------|
Eb|------------------------------------------------------|
Bb|--5--5--5-5----5--5--5-5----9--9--9-9----9--9--9-9----|
 F|--5--5--5-5----5--5--5-5----9--9--9-9----9--9--9-9----|
Bb|--5--5--5-5----5--5--5-5----9--9--9-9----9--9--9-9----|

Chorus guitar 2: 00:47
 C|-------10-----------10-----------10-----------10------|
 G|--8-h10--7-/8--8-h10--7-/8--8-h10--7-/8--8-h10--7-/8--|
Eb|------------------------------------------------------|
Bb|------------------------------------------------------|
 F|------------------------------------------------------|
Bb|------------------------------------------------------|

Chorus Guitar 1: 00:55
 C|------------------------------------------------------|
 G|------------------------------------------------------|
Eb|------------------------------------------------------|
Bb|--10-10-1010--10-10-1010----5--5--5-5----7--7--7-7----|
 F|--10-10-1010--10-10-1010----5--5--5-5----5--5--5-5----|
Bb|--10-10-1010--10-10-1010----5--5--5-5----5--5--5-5----|

Chorus Guitar 2: 00:55
 C|-------10-----------10-----------10-----------10------|
 G|--8-h10--7-/8--8-h10--7-/8--8-h10--7-/8--8-h10--7-/8--|
Eb|------------------------------------------------------|
Bb|------------------------------------------------------|
 F|------------------------------------------------------|
Bb|------------------------------------------------------|

guitar 1: 01:03
 C|-------------------------------------------------------------|
 G|-------------------------------------------------------------|
Eb|--5--------------5--5--5--5----------------------------------|
Bb|--5--------------5--5--5--5-----2--2--2--2-----2--2--2--7-7--|
 F|--3--------------3--3--3--3-----2--2--2--2-----2--2--2--5-5--|
Bb|--------------------------------2--2--2--2-----2--2--2-------|

guitar 2: 01:03
 C|-----5--7-----------5--7-----------5--7-----------5--7--8-7--|
 G|--8--------7--8--8--------7--8--8--------7--8--8-------------|
Eb|-----------7-10-----------7-10-----------7-10----------------|
Bb|-------------------------------------------------------------|
 F|-------------------------------------------------------------|
Bb|-------------------------------------------------------------|

Guitar 1: 01:10
 C|-------------------------------------------------------------|
 G|-------------------------------------------------------------|
Eb|--5--5--5--5-----5--5--5--5----------------------------------|
Bb|--5--5--5--5-----5--5--5--5-----2--2--2--2-----2--2--2--7-7--|
 F|--3--3--3--3-----3--3--3--3-----2--2--2--2-----2--2--2--5-5--|
Bb|--------------------------------2--2--2--2-----2--2--2-------|

guitar 2: 01:10
 C|-----5--7-----------5--7-----------5--7-----------5--7--8-7--|
 G|--8--------7--8--8--------7--8--8--------7--8--8-------------|
Eb|-----------7-10-----------7-10-----------7-10----------------|
Bb|-------------------------------------------------------------|
 F|-------------------------------------------------------------|
Bb|-------------------------------------------------------------|

Verse 2 guitar 1: 01:18
 C|-------------------------------------------------------------------|
 G|-------------------------------------------------------------------|
Eb|-------------------------------------------------------------------|
Bb|--2----7----10----3----2----7----10----3----2----7----10----3------|
 F|--2----7----10----3----2----7----10----3----2----7----10----3------|
Bb|--2----7----10----3----2----7----10----3----2----7----10----3------|

Verse 2 guitar 2: 01:18
 C|-----------------------------------------------12---12----12---13--|
 G|----5----5-----5----6----5----5-----5----6---12---12----12---12----|
Eb|---4----4-----4----5----4----4-----4----5--------------------------|
Bb|-------------------------------------------------------------------|
 F|-------------------------------------------------------------------|
Bb|-------------------------------------------------------------------|

Chorus guitar 1: 01:42/01:58 *play 2 times*
 C|------------------------------------------------------|
 G|------------------------------------------------------|
Eb|------------------------------------------------------|
Bb|--5--5--5-5----5--5--5-5----9--9--9-9----9--9--9-9----|
 F|--5--5--5-5----5--5--5-5----9--9--9-9----9--9--9-9----|
Bb|--5--5--5-5----5--5--5-5----9--9--9-9----9--9--9-9----|

Chorus guitar 2: 01:42/01:58
 C|-------10-----------10-----------10-----------10------|
 G|--8-h10--7-/8--8-h10--7-/8--8-h10--7-/8--8-h10--7-/8--|
Eb|------------------------------------------------------|
Bb|------------------------------------------------------|
 F|------------------------------------------------------|
Bb|------------------------------------------------------|

Chorus Guitar 1: 01:50/02:05
 C|------------------------------------------------------|
 G|------------------------------------------------------|
Eb|------------------------------------------------------|
Bb|--10-10-1010--10-10-1010----5--5--5-5----7--7--7-7----|
 F|--10-10-1010--10-10-1010----5--5--5-5----5--5--5-5----|
Bb|--10-10-1010--10-10-1010----5--5--5-5----5--5--5-5----|

Chorus Guitar 2: 01:50/02:05
 C|-------10-----------10-----------10-----------10------|
 G|--8-h10--7-/8--8-h10--7-/8--8-h10--7-/8--8-h10--7-/8--|
Eb|------------------------------------------------------|
Bb|------------------------------------------------------|
 F|------------------------------------------------------|
Bb|------------------------------------------------------|

guitar 2: 02:15 Clean with Delay
 C|----------------------------------------12-----------------|
 G|-----12-----10-----13-----12-----12------------12------10--|
Eb|--(9)-----9------9------9------9------9------9------9------|
Bb|-----------------------------------------------------------|
 F|-----------------------------------------------------------|
Bb|-----------------------------------------------------------|

Guitar 1: 02:14 Distorted with Feedback
 C|-----------------------------------------------------------|
 G|--5--------------------------------------------------------|
Eb|--0--------------------------------------------------------|
Bb|--2--------------------------------------------------------|
 F|-----------------------------------------------------------|
Bb|-----------------------------------------------------------|

guitar 2 continued: 02:25 clean with Delay
 C|-----------------------------12----12--12---------12--14--12------|
 G|-----13----12----12----10--------12--12--12-10--12--12--12--------|
Eb|--9------9-----9-----9-----9--------------------------------------|
Bb|------------------------------------------------------------------|
 F|------------------------------------------------------------------|
Bb|------------------------------------------------------------------|

guitar 1: 02:37 Distorted with feedback
 C|--------------------------------------------------------------15--|
 G|------------------------------------------------------------------|
Eb|------------------------------------------------------------------|
Bb|------------------------------------------------------------------|
 F|-------------------------------------------------5/7--/9-/10------|
Bb|------------------------------------------------------------------|

guitar 1: 02:44
 C|------------------------------------------------------------|
 G|------------------------------------------------------------|
Eb|------------------------------------------------------------|
Bb|--5--5---5--5---5--5---5--5---9--9---9--9---9--9---9--9-----|
 F|--5--5---5--5---5--5---5--5---9--9---9--9---9--9---9--9-----|
Bb|--5--5---5--5---5--5---5--5---9--9---9--9---9--9---9--9-----|

Solo guitar 2: 02:45
 C|------------------------------------------------------------|
 G|-------------15------------15------------15-------------15--|
Eb|--11brb11h12----11brb11h12----11brb11h12-----11brb11h12-----|
Bb|------------------------------------------------------------|
 F|------------------------------------------------------------|
Bb|------------------------------------------------------------|

Guitar 1 cont. 02:53
 C|--------------------------------------------------------------------|
 G|--------------------------------------------------------------------|
Eb|--------------------------------------------------------------------|
Bb|--10-10--10--10-10--10--10-10--10--10-10--5--5---5----7--7---7------|
 F|--10-10--10--10-10--10--10-10--10--10-10--5--5---5----5--5---5------|
Bb|--10-10--10--10-10--10--10-10--10--10-10--5--5---5----5--5---5------|

Guitar 2: 02:53
 C|----------------------------------------------------10---------------|
 G|---12-10-12-12brb-10-12-10-12-12brb-10------10--10------10--10-------|
Eb|------------------------------------------12--12--12--12--12--12-11--|
Bb|---------------------------------------------------------------------|
 F|---------------------------------------------------------------------|
Bb|---------------------------------------------------------------------|

Chorus guitar 1: 03:01/0:16 *play 2 times*
 C|------------------------------------------------------|
 G|------------------------------------------------------|
Eb|------------------------------------------------------|
Bb|--5--5--5-5----5--5--5-5----9--9--9-9----9--9--9-9----|
 F|--5--5--5-5----5--5--5-5----9--9--9-9----9--9--9-9----|
Bb|--5--5--5-5----5--5--5-5----9--9--9-9----9--9--9-9----|

Chorus guitar 2: 03:01/03:16
 C|-------10-----------10-----------10-----------10------|
 G|--8-h10--7-/8--8-h10--7-/8--8-h10--7-/8--8-h10--7-/8--|
Eb|------------------------------------------------------|
Bb|------------------------------------------------------|
 F|------------------------------------------------------|
Bb|------------------------------------------------------|

Chorus Guitar 1: 03:09/03:24
 C|------------------------------------------------------|
 G|------------------------------------------------------|
Eb|------------------------------------------------------|
Bb|--10-10-1010--10-10-1010----5--5--5-5----7--7--7-7----|
 F|--10-10-1010--10-10-1010----5--5--5-5----5--5--5-5----|
Bb|--10-10-1010--10-10-1010----5--5--5-5----5--5--5-5----|

Chorus Guitar 2: 03:09/03:24
 C|-------10-----------10-----------10-----------10------|
 G|--8-h10--7-/8--8-h10--7-/8--8-h10--7-/8--8-h10--7-/8--|
Eb|------------------------------------------------------|
Bb|------------------------------------------------------|
 F|------------------------------------------------------|
Bb|------------------------------------------------------|

guitar 2: 03:32
 C|-------10---------------------------------------------|
 G|--8-h10-----------------------------------------------|
Eb|------------------------------------------------------|
Bb|------------------------------------------------------|
 F|------------------------------------------------------|
Bb|------------------------------------------------------|

guitar 1: 03:32
 C|------------------------------------------------------|
 G|------------------------------------------------------|
Eb|------------------------------------------------------|
Bb|--5---------------------------------------------------|
 F|--5---------------------------------------------------|
Bb|--5---------------------------------------------------|

Finished!
Suggest correction
Creating personal tab
Creating personal tab
You can edit any tab online and save it as your Personal.

You can edit, replace or remove any tab part or add personal notes – all changes will be seen only by you.

Personal tabs can be accessed anytime from any device, even offline.
Learn more »
comments
print report bad tab
17 comments total. Showing first comments.
0 reply
my_phobia 10 Sep 02, 2006 06:05 AM

wow is all i can say and your doing it in drop c to? i can't wait to see it 5 stars from me

0 reply
I-Z 214 Sep 02, 2006 06:23 PM

why r u gonna tab it in drop C for

0 reply
U B the band 3,023 Sep 02, 2006 07:55 PM

I want to tab it in Drop C for the people that don't play in Drop Bb and it would be cool to have two different tunings of this tab for everyone to see....do you like it in Drop Bb? personally I don't care what it's in I just felt like doing it in Drop C as well(it can be played in both tunings) but oh well it was fun. -U B the band

guest
You may want to rate the tab now too:
select rating
Wanna post a correction for this tab? Suggest correction