Oops, an error
Loading. Please wait.

Until The End tab

version 1
version 1

Whole song

Interactive

34,934 views 66 this week
10 commentsread comments
1 2 3 4 5
x 5
add to favorites
×
Save as Personal and add changes to this tab that will be seen only by you. Learn more ›
×
You can save this tab as Personal to edit and correct it or add notes. All changes will be seen only by you. Learn more »
launch autoscroll
font size
0
reset
how to read this tab
guitar tuner
backing track
0:00
0:00
edit
Autoscroll
slow
fast
+/-
esc
set tempo
stop
Author
Hey this is my first tab so if anything is wrong please dont get all on my *** please. 
only 12 years old and this may be wrong I really dont know. If theres anything I missed, 
up, or just to comment email me at StillAliveJustBleeding@hotmail.com
Thanks for taking the time to look at my tab!


Tuning: Drop A#

INTRO: DISTORTION
Guitar 1
|------------------------------------------------------------------|
|------------------------------------------------------------------|
|--101010101010-999999-777777--------------------------------------|
|----------------------------777777-888888-1010881010-777777777777-|
|------------------------------------------------------------------|
|------------------------------------------------------------------|

Guitar 2 SILENT

Guitar 1
|------------------------------------------------------------------|
|------------------------------------------------------------------|
|--101010101010-999999-777777-------------------------777777777777-|
|----------------------------777777-888888-1010881010--------------|
|------------------------------------------------------------------|
|------------------------------------------------------------------|

Guitar 2
|------------------------------------------------------------------|
|------------------------------------------------------------------|
|------------------------------------------------------------------|
|------------------------------------------------------------0-1---|
|--0------------0-0-----0----70000------------0-0-----0------0-1---|
|--0------------0-0-----0----70000------------0-0-----0------0-1---|
PM                           ....

Guitar 1
|------------------------------------------------------------------|
|------------------------------------------------------------------|
|--101010101010-999999-777777--------------------------------------|
|----------------------------777777-888888-1010881010-777777777777-|
|------------------------------------------------------------------|
|------------------------------------------------------------------|
Guitar 2
|---------------------------------------------|
|---------------------------------------------|
|---------------------------------------------|
|---0--0---0-0--0-----0-0--0---0-0--0---------|
|---0--0---0-0--0-----0-0--0---0-0--0---------|
|---0--0-3-0-0--0-320-0-0--0-3-0-0--0-320320--|
PM       .        ...        .        ......

|------------------------------------------------|
|------------------------------------------------|
|------------------------------------------------|
|---0--0---0-0--0---0-0--0---0-0--0--------------|
|---0--0---0-0--0---0-0--0---0-0--0--3h555-3h666-|
|---0--0-3-0-0--0-3-0-0--0-3-0-0--0--------------|
PM       .        .        .

|---------------------------------------------|
|---------------------------------------------|
|---------------------------------------------|
|---0--0---0-0--0-----0-0--0---0-0--0---------|
|---0--0---0-0--0-----0-0--0---0-0--0---------|
|---0--0-3-0-0--0-320-0-0--0-3-0-0--0-320320--|
PM       .        ...        .        ......

|---------------------------------------------|
|---------------------------------------------|
|---------------------------------------------|
|---0--0---0-0--0---0-0--0---0-0--0-----------|
|---0--0---0-0--0---0-0--0---0-0--0-5---5h888-|
|---0--0-3-0-0--0-3-0-0--0-3-0-0--0--000------|
PM       .        .        .         ...
Suggest correction
Creating personal tab
Creating personal tab
You can edit any tab online and save it as your Personal.

You can edit, replace or remove any tab part or add personal notes – all changes will be seen only by you.

Personal tabs can be accessed anytime from any device, even offline.
Learn more »
comments
print report bad tab
10 comments total. Showing first comments.
0 reply
|_knives101_| 37 Aug 04, 2006 01:02 PM

hey everyone i messed up i made a new account so i'll submit it on that one ok?

0 reply
|_knives101_| 37 Aug 04, 2006 01:02 PM

which is this one so yeah

0 reply
jaames 1,351 Aug 04, 2006 04:53 PM

sounds alright, but where's the chorus??

guest
You may want to rate the tab now too:
select rating
Wanna post a correction for this tab? Suggest correction