Oops, an error
Loading. Please wait.

Until The End bass

version 2
version 2

Whole song

Interactive

1,933 views 3 this week
2 commentsread comments
1 2 3 4 5
2 more votes to show rating
add to favorites
×
Save as Personal and add changes to this tab that will be seen only by you. Learn more ›
×
You can save this tab as Personal to edit and correct it or add notes. All changes will be seen only by you. Learn more »
launch autoscroll
font size
0
reset
guitar tuner
backing track
0:00
0:00
edit
Autoscroll
slow
fast
+/-
esc
set tempo
stop
Author
Difficulty
until the end--breaking benjamin

email: crispy7410@hotmail.com

The open low D in the verse may song wrong, but if u play with the song that's what it 
like. If u dont like the open D, just play 8 on the low D. This song is easier to play if 
play along with the song at first because of the rhythm/strumming.

Intro
G|--------------------------|
D|--------------------------|
A|--------------------------|
D|--8-88-8-88888-88-8-89----|

G|----------------------------------------|
D|----------------------------------------|
A|----------------------------------------|
D|--88-888-11-10-888-11-10-8--11-10-8-----|

G|--------------------|
D|--------------------|
A|--------------------|
D|--88-888-8888-89----|

G|----------------------------------------|
D|----------------------------------------|
A|----------------------------------------|
D|--88-888-11-10-888-11-10-8--11-10-8-----|

G|--------------------|
D|--------------------|
A|--------------------|
D|--88-888-8888-89----|


Verse 1
G|-----------------------|
D|-----------------------|
A|-----------------------|
D|--8~---3~---4~--6~-4~--|

			x2				x1
G|------------------------|---------------------|
D|------------------------|---------------------|
A|------------------------|---------------------|
D|--0~---3~---4~--6~-4~---|--0~---3~---4~--6644-|


Chorus
G|--------------------------------|
D|--------------------------------|
A|--444444------------------------|
D|---------66888888-334444--6644--|

G|--------------------------------|
D|--------------------------------|
A|--444444------------------------|
D|---------66888888-334444--6~4~--|


Post-Chorus
G|----------------------------------------|
D|----------------------------------------|
A|----------------------------------------|
D|--88-888-11-10-888-11-10-8--11-10-8-----|

G|--------------------|
D|--------------------|
A|--------------------|
D|--88-888-8888-89----|


Verse 2
G|-----------------------|
D|-----------------------|
A|-----------------------|
D|--8~---3~---4~--6~-4~--|

G|-----------------------|
D|-----------------------|
A|-----------------------|  x2
D|--0~---3~---4~--6~-4~--|

G|-----------------------|
D|-----------------------|
A|-----4---4-------------|
D|--0~---3~---4~--6644---|


Chorus
G|--------------------------------|
D|--------------------------------|
A|--444444------------------------|  x3
D|---------66888888-334444--6644--|


Bridge
G|--------------------|
D|--------------------|
A|--------------------|
D|--8~--3~--4~--6--4--|

G|---------------------|
D|---------------------|
A|--1-1--13~-11-8-6-4--|  x4
D|---------------------|

G|----------------------------------|
D|----------------------------------|
A|--1-1--4-3----4-3----4-3---4---3--|  x2
D|-----------33-----44-----6---4----|


Chorus
G|--------------------------------|
D|--------------------------------|
A|--444444------------------------|  x5
D|---------66888888-334444--6644--|


Ending
G|---------------|
D|---------------|
A|--1~-----------|
D|------3~--4~~--|
Suggest correction
Creating personal tab
Creating personal tab
You can edit any tab online and save it as your Personal.

You can edit, replace or remove any tab part or add personal notes – all changes will be seen only by you.

Personal tabs can be accessed anytime from any device, even offline.
Learn more »
Give kudos to tab author, rate the tab!
1 2 3 4 5
comments
print report bad tab
2 comments total.
0 reply
phasesevenfold 213 Oct 06, 2007 04:23 PM

yeah u know he plays in like friggen drop B right? dont worry about it i made the same mistake on the Had enough tab

0 reply
cbeeson5 115 Jan 02, 2009 06:23 AM

i know he does, you can see it in all the videos. this is just the version for people without a 5 string bass. like me :)

guest
You may want to rate the tab now too:
select rating
Wanna post a correction for this tab? Suggest correction