Oops, an error
Loading. Please wait.

Until The End tab

version 2
version 2

Whole song

Interactive

155,649 views 48 this week
55 commentsread comments
1 2 3 4 5
x 39
add to favorites
×
Save as Personal and add changes to this tab that will be seen only by you. Learn more ›
×
You can save this tab as Personal to edit and correct it or add notes. All changes will be seen only by you. Learn more »
launch autoscroll
font size
0
reset
how to read this tab
guitar tuner
backing track
0:00
0:00
edit
Autoscroll
slow
fast
+/-
esc
set tempo
stop
Author
Breaking Benjamin
Until The End
Tabbed By U B the band
Tuning A# F A# D# G C


[Intro]

Guitar 1 (Aaron):
 C|----------------------------------------------------------------------------------------------------------|
 G|--6-6-6-6-6-6--5-5-5-5-5-5--3-3-3-3-3-3-------------------------------------------------------------------|
D#|-----------------------------------------2-2-2-2-2-2--3-3-3-3-3-3--5-5--3-3--5-5--2-2-2-2-2-2-2-2-2-2-2-2-|
A#|----------------------------------------------------------------------------------------------------------|
 F|----------------------------------------------------------------------------------------------------------|
A#|----------------------------------------------------------------------------------------------------------|

Guitar 1 Cont.
 C|----------------------------------------------------------------------------------------------------------|
 G|--6-6-6-6-6-6--5-5-5-5-5-5--3-3-3-3-3-3---------------------------------3-3-3-3-3-3-3-3-3-3-3-3-----------|
D#|-----------------------------------------2-2-2-2-2-2--3-3-3-3-3-3--5-5-3------------------------3-5-5-----|
A#|----------------------------------------------------------------------------------------------------------|
 F|----------------------------------------------------------------------------------------------------------|
A#|----------------------------------------------------------------------------------------------------------|


[Intro]

Guitar 2 (Ben):
 C|-----------------------------------------------------------------------|
 G|-----------------------------------------------------------------------|
D#|-----------------------------------------------------------------------|
A#|--0-------0--0-----0------0-3-2-2----0-------0--0----0---------0-h1----|
 F|--0-------0--0-----0------0-3-2-2----0-------0--0----0---------0-h1----|
A#|--0-------0--0-----0------0-3-2-2----0-------0--0----0---------0-h1----|
                             pmpm                     

Guitar 1:
 C|----------------------------------------------------------------------------------------------------------|
 G|--6-6-6-6-6-6--5-5-5-5-5-5--3-3-3-3-3-3-------------------------------------------------------------------|
D#|-----------------------------------------2-2-2-2-2-2--3-3-3-3-3-3--5-5--3-3--5-5--2-2-2-2-2-2-2-2-2-2-2-2-|
A#|----------------------------------------------------------------------------------------------------------|
 F|----------------------------------------------------------------------------------------------------------|
A#|----------------------------------------------------------------------------------------------------------|


Guitar 2:
 C|-----------------------------------------------------------------------------|
 G|-----------------------------------------------------------------------------|
D#|-----------------------------------------------------------------------------|
A#|--0-0--0--0-0-3-2-0-0-0--0--3-2-0-3-2-0-0-0--0--0-0--0--0-0--0---------------|
 F|--0-0--0--0-0-3-2-0-0-0--0--3-2-0-3-2-0-0-0--0--0-0--0--0-0--0--3h5-3h6-6-6--|
A#|--0-0--0--0-0-3-2-0-0-0--0--3-2-0-3-2-0-0-0--0--0-0--0--0-0--0---------------|
                 pmpm        pmpmpm    

Guitar 1:
 C|--------------------------------------------------------------------------------------------------------|
 G|--6-6-6-6-6-6--5-5-5-5-5-5--3-3-3-3-3-3---------------------------------3-3-3-3-3-3-3----------3h5h6p3--|
D#|-----------------------------------------2-2-2-2-2-2--3-3-3-3-3-3--5-5-3--------------3-5-5-------------|
A#|--------------------------------------------------------------------------------------------------------|
 F|--------------------------------------------------------------------------------------------------------|
A#|--------------------------------------------------------------------------------------------------------|

Guitar 2:
 C|----------------------------------------------------------------------------|
 G|----------------------------------------------------------------------------|
D#|----------------------------------------------------------------------------|
A#|--0-0--0--0-0-3-2-0-0-0--0--3-2-0-3-2-0-0-0--0--0-0--0--0-0--0-0-0-0h2h3-0--|
 F|--0-0--0--0-0-3-2-0-0-0--0--3-2-0-3-2-0-0-0--0--0-0--0--0-0--0-0------------|
A#|--0-0--0--0-0-3-2-0-0-0--0--3-2-0-3-2-0-0-0--0--0-0--0--0-0--0-0------------|
                 pmpm        pmpmpm    


[Verse 1]

Guitar 1 (Aaron):
 C|-------5---------8-----5-----------------5---------8-----5----------|
 G|--6-h8----5------6---------8---6----6-h8----5------6---------8---6--|
D#|------------(5)--7----------------------------(5)--7----------------|
A#|--------------------------------------------------------------------|
 F|--------------------------------------------------------------------|
A#|--------------------------------------------------------------------|


[Verse 1]

Guitar 2 (Ben): Strum
 C|--------------------------------------------------------------------|
 G|-------------------------------3---------------------------------3--|
D#|----------2------3-----5---3---2------------2------3-----5---3---2--|
A#|----------2------3-----5---3---0------------2------3-----5---3---0--|
 F|----------0------1-----3---1---0------------0------1-----3---1---0--|
A#|-------------------------------0---------------------------------0--|


[Verse 1]

Guitar 1:
 C|-------5---------8-----5-----------------5---------8------5---------|
 G|--6-h8----5------6---------8---6----6-h8----5------6------------8---|
D#|------------(5)--7----------------------------(5)--7----------------|
A#|--------------------------------------------------------------------|
 F|--------------------------------------------------------------------|
A#|--------------------------------------------------------------------|


[Verse 1]

Guitar 2: Strum
 C|------------------------------------------------------------------------|
 G|-------------------------------3----------------------------------------|
D#|----------2------3-----5---3---2------------2------3---------5-5---3-3--|
A#|----------2------3-----5---3---0------------2------3---x-x-x-5-5---3-3--|
 F|----------0------1-----3---1---0------------0------1---x-x-x-3-3---1-1--|
A#|-------------------------------0-----------------------x-x-x------------|

Chorus 1 Guitar 2 (Ben):
 C|--------------------------------------------------------------------|
 G|--------------------------------------------------------------------|
D#|------------------5-----5-----5---5-----2----3-----3----5-----3-----|
A#|--3-----3---3-----5-----3-----3---3-----2----3-----3----5-----3-----|
 F|--3-----3---3-----3-----5-----5---5-----0----1-----1----3-----1-----|
A#|--3-----3---3----------(0)------------------------------------------|(x2)


[Chorus 1]

Guitar 1 (Aaron):
 C|-----------------------------------------------------------8--------|
 G|------8--------------------8--------------------8------10-----10----|
D#|---------10-------------------10-------------------10---------------|
A#|--10---------8---7--8--10----------8---7--8--10---------------------|
 F|--------------------------------------------------------------------|
A#|--------------------------------------------------------------------|

Guitar 1 Cont.
 C|--------------------------------------------------------------------|
 G|------8--------------------8--------------------8-------10----8-----|
D#|---------10-------------------10-------------------10---------------|
A#|-------------8---7--8--10----------8---7--8--10---------------------|
 F|--------------------------------------------------------------------|
A#|--------------------------------------------------------------------|

After Chorus Guitar 1:
 C|---------------------------------------------------------------------------------------------------------|
 G|--6-6-6-6-6-6--5-5-5-5-5-5--3-3-3-3-3-3----------------------------------3-3-3-3-3-3-3----------3h5h6p3--|
D#|-----------------------------------------2-2-2-2-2-2--3-3-3-3-3-3--5-5-3---------------3-5-5-------------|
A#|---------------------------------------------------------------------------------------------------------|
 F|---------------------------------------------------------------------------------------------------------|
A#|---------------------------------------------------------------------------------------------------------|

After Chorus Guitar 2:
 C|----------------------------------------------------------------------------|
 G|----------------------------------------------------------------------------|
D#|----------------------------------------------------------------------------|
A#|--0-0--0--0-0-3-2-0-0-0--0--3-2-0-3-2-0-0-0--0--0-0--0--0-0--0-0-0-0h2h3-0--|
 F|--0-0--0--0-0-3-2-0-0-0--0--3-2-0-3-2-0-0-0--0--0-0--0--0-0--0-0------------|
A#|--0-0--0--0-0-3-2-0-0-0--0--3-2-0-3-2-0-0-0--0--0-0--0--0-0--0-0------------|
                 pmpm          pmpmpm    


[Verse 2]

Guitar 1 (Aaron):
 C|-------5---------8-----5-----------------5---------8-----5----------|
 G|--6-h8----5------6---------8---6----6-h8----5------6---------8---6--|
D#|------------(5)--7----------------------------(5)--7----------------|
A#|--------------------------------------------------------------------|
 F|--------------------------------------------------------------------|
A#|--------------------------------------------------------------------|


[Verse 2]

Guitar 2 (Ben): Strum
 C|--------------------------------------------------------------------|
 G|-------------------------------3---------------------------------3--|
D#|----------2------3-----5---3---2------------2------3-----5---3---2--|
A#|----------2------3-----5---3---0------------2------3-----5---3---0--|
 F|----------0------1-----3---1---0------------0------1-----3---1---0--|
A#|-------------------------------0---------------------------------0--|


[Verse 2]

Guitar 1:
 C|-------5---------8-----5-----------------5---------8-------5--------|
 G|--6-h8----5------6---------8---6----6-h8----5------6------------8---|
D#|------------(5)--7----------------------------(5)--7----------------|
A#|--------------------------------------------------------------------|
 F|--------------------------------------------------------------------|
A#|--------------------------------------------------------------------|


[Verse 2]

Guitar 2: Strum
 C|-------------------------------------------------------------------------|
 G|-------------------------------3-----------------------------------------|
D#|----------2------3-----5---3---2------------2------3---------5-5---3--3--|
A#|----------2------3-----5---3---0------------2------3---x-x-x-5-5---3--3--|
 F|----------0------1-----3---1---0------------0------1---x-x-x-3-3---11----|
A#|-------------------------------0-----------------------x-x-x-------------|


[Chorus 1]

Guitar 2 (Ben):
 C|--------------------------------------------------------------------|
 G|--------------------------------------------------------------------|
D#|------------------5-----5-----5---5-----2----3-----3----5-----3-----|
A#|--3-----3---3-----5-----3-----3---3-----2----3-----3----5-----3-----|
 F|--3-----3---3-----3-----5-----5---5-----0----1-----1----3-----1-----|
A#|--3-----3---3----------(0)------------------------------------------|(x2)


[Chorus 1]

Guitar 1 (Aaron):
 C|----------------------------------------------------------8---------|
 G|------8--------------------8--------------------8-----10-----10-----|
D#|---------10-------------------10------------------10----------------|
A#|--10---------8---7--8--10----------8---7--8--10---------------------|
 F|--------------------------------------------------------------------|
A#|--------------------------------------------------------------------|

Guitar 1 Cont.
 C|--------------------------------------------------------------------|
 G|------8--------------------8--------------------8------10----8------|
D#|---------10-------------------10------------------10----------------|
A#|-------------8---7--8--10----------8---7--8--10---------------------|
 F|--------------------------------------------------------------------|
A#|--------------------------------------------------------------------|


[Chorus 2]

Guitar 2: (I've lost my way)
 C|--------------------------------------------------------------------|
 G|--------------------------------------------------------------------|
D#|------------------5-----5-----5---5-----2----3-----3----5-----3-----|
A#|--3-----3---3-----5-----3-----3---3-----2----3-----3----5-----3-----|
 F|--3-----3---3-----3-----5-----5---5-----0----1-----1----3-----1-----|
A#|--3-----3---3----------(0)------------------------------------------|


[Chorus 2]

Guitar 1: (I've lost my way)
 C|----------------8----------------------8-----------8----------------|
 G|--------8-----------10--------8------------10----------10-----8-----|
D#|------------10---------------------10-------------------------------|
A#|--10----------------------------------------------------------------|
 F|--------------------------------------------------------------------|
A#|--------------------------------------------------------------------|

After Chorus 2 Guitar 2:
 C|--------------------------------------------------------------------|
 G|--------------------------------------------------------------------|
D#|--2----------------4---------------------------------5--------------|
A#|--0----------------2----------------3----------------5-----------3--|
 F|--0----------------0----------------1----------------3-----------1--|
A#|--0-----------------------------------------------------------------|

After Chorus 2 Guitar 1:
 C|--------------------------------------------------------------------|
 G|--------------------------------------------------------------------|
D#|-10-----------------------------------------------------------------|
A#|--0---------------10---------------10----------------10----------8--|
 F|--0----------------7----------------8----------------10----------8--|
A#|--0----------------7----------------8----------------10----------8--|


[Bridge]

Guitar 2: *play 2 times*
 C|--------------------------------------------------------------------|
 G|--------------------------------------------------------------------|
D#|--------------------------------------------------------------------|
A#|--0------0------12------10-h11p10-----7-----5-h6p5-----3------------|
 F|--0------0------12------10-h11p10-----7-----5-h6p5-----3------------|
A#|--0------0------12------10-h11p10-----7-----5-h6p5-----3------------|
                                                                       |
Guitar 2 Cont.                                                         |
 C|--------------------------------------------------------------------|
 G|--------------------------------------------------------------------|
D#|--------------------------------------------------------------------|
A#|--0------0------12------10-h11p10-----7-------6-------5-------------|
 F|--0------0------12------10-h11p10-----7-------6-------5-------------|
A#|--0------0------12------10-h11p10-----7-------6-------5-------------|

Bridge Guitar 1:
 C|--------------------------------------------------------------------|
 G|--------------------------------------------------------------------|
D#|--------------------------------------------------------------------|
A#|--0------0------12------10-h11p10-----7-----5-h6p5-----3------------|
 F|--0------0------12------10-h11p10-----7-----5-h6p5-----3------------|
A#|--0------0------12------10-h11p10-----7-----5-h6p5-----3------------|

Guitar 1 Cont.
 C|--------------------------------------------------------------------|
 G|--------------------------------------------------------------------|
D#|--------------------------------------------------------------------|
A#|--0------0------12------10-h11p10-----7-------6-------5-------------|
 F|--0------0------12------10-h11p10-----7-------6-------5-------------|
A#|--0------0------12------10-h11p10-----7-------6-------5-------------|

Guitar 1 Cont.
 C|--------------------------------------------------------------------|
 G|--------------------------------------------------------------------|
D#|--------------------------------------------------------------------|
A#|--0------0------12------10-h11p10-----7-----5-h6p5-----3------------|
 F|--0------0------12------10-h11p10-----7-----5-h6p5-----3------------|
A#|--0------0------12------10-h11p10-----7-----5-h6p5-----3------------|

Guitar 1 Cont.
 C|-----------------------------------2-/-/-/-/-/-/-10-----------------|
 G|-----------------------------------3-/-/-/-/-/-/-10-----------------|
D#|--------------------------------------------------------------------|
A#|--0------0------12------10-h11p10-----------------------------------|
 F|--0------0------12------10-h11p10-----------------------------------|
A#|--0------0------12------10-h11p10-----------------------------------|


[Bridge]

Guitar 2 during Solo (Ben):
 C|--------------------------------------------------------------------|
 G|--------------------------------------------------------------------|
D#|--------------------------------------------------------------------|
A#|--------------------------------------------------------------------|
 F|--5------8---7---(7)-----8---7---(8)---8---7----(10)--8-----7-------|
A#|-(0)--------------7---------------8--------------10------8----------|


[Solo]

(Aaron): *The |x#| thing is how many times you pick the notes/chord*
 C|--10|   |----------8|   |--------10|   |---------12|   |------------|
 G|--10|x12|---------10|x12|--------11|x12|---------13|x12|------------|
D#|--------------------------------------------------------------------|
A#|--------------------------------------------------------------------|
 F|--------------------------------------------------------------------|
A#|--------------------------------------------------------------------|

Guitar 2 cont. during Solo (Ben):
 C|--------------------------------------------------------------------|
 G|--------------------------------------------------------------------|
D#|--------------------------------------------------------------------|
A#|--------------------------------------------------------------------|
 F|--5------8---7---(7)-----8---7---(8)---8---7---(10)--8-----7--------|
A#|-(0)--------------7---------------8-------------10------8-----------|

Guitar 1 solo cont.
 C|--17|  |--15|  |--13|  |--12|  |--13|  |/15\13/15-15|  |--17-15-17\-|
 G|--18|x6|--17|x6|--15|x6|--13|x6|--15|x6|/17\15/17-17|x6|--18-17-18\-|
D#|--------------------------------------------------------------------|
A#|--------------------------------------------------------------------|
 F|--------------------------------------------------------------------|
A#|--------------------------------------------------------------------|


[Chorus 1]

Guitar 2 (Ben):
 C|--------------------------------------------------------------------|
 G|--------------------------------------------------------------------|
D#|------------------5-----5-----5---5-----2----3-----3----5-----3-----|
A#|--3-----3---3-----5-----3-----3---3-----2----3-----3----5-----3-----|
 F|--3-----3---3-----3-----5-----5---5-----0----1-----1----3-----1-----|
A#|--3-----3---3----------(0)------------------------------------------|(x2)


[Chorus 1]

Guitar 1 (Aaron):
 C|----------------------------------------------------------8---------|
 G|-----(8)-------------------8--------------------8-----10-----10-----|
D#|--------(10)------------------10------------------10----------------|
A#|-(10)--------8---7--8--10----------8---7--8--10---------------------|
 F|--------------------------------------------------------------------|
A#|--------------------------------------------------------------------|

Guitar 1 Cont.
 C|--------------------------------------------------------------------|
 G|------8--------------------8--------------------8------10----8------|
D#|---------10-------------------10------------------10----------------|
A#|-------------8---7--8--10----------8---7--8--10---------------------|
 F|--------------------------------------------------------------------|
A#|--------------------------------------------------------------------|


[Chorus 2]

Guitar 2: (I've lost my way)
 C|--------------------------------------------------------------------|
 G|--------------------------------------------------------------------|
D#|------------------5-----5-----5---5-----2----3-----3----5-----3-----|
A#|--3-----3---3-----5-----3-----3---3-----2----3-----3----5-----3-----|
 F|--3-----3---3-----3-----5-----5---5-----0----1-----1----3-----1-----|
A#|--3-----3---3----------(0)------------------------------------------|


[Chorus 2]

Guitar 1: (I've lost my way)
 C|----------------8----------------------8-----------8----------------|
 G|--------8-----------10--------8------------10----------10-----8-----|
D#|------------10---------------------10-------------------------------|
A#|--10----------------------------------------------------------------|
 F|--------------------------------------------------------------------|
A#|--------------------------------------------------------------------|


[Chorus 3]

Guitar 2: (Oo..Oo..Ooo..)
 C|--------------------------------------------------------------------|
 G|--------------------------------------------------------------------|
D#|------------------5-----5-----5---5-----2----3-----3----5-----3-----|
A#|--3-----3---3-----5-----3-----3---3-----2----3-----3----5-----3-----|
 F|--3-----3---3-----3-----5-----5---5-----0----1-----1----3-----1-----|
A#|--3-----3---3----------(0)------------------------------------------|


[Chorus 3]

Guitar 1: (Oo..Oo..Ooo..)
 C|------8----------8----------8----------8----------8----------8------|
 G|---------10---------10---------10---------10---------10---------10--|
D#|--10---------10---------10---------10---------10---------10---------|
A#|--------------------------------------------------------------------|
 F|--------------------------------------------------------------------|
A#|--------------------------------------------------------------------|


[Chorus 4]

Guitar 2: (The final fight I'll win)
 C|--------------------------------------------------------------------|
 G|--------------------------------------------------------------------|
D#|------------------5-----5-----5---5-----2----3-----3----5-----3-----|
A#|--3-----3---3-----5-----3-----3---3-----2----3-----3----5-----3-----|
 F|--3-----3---3-----3-----5-----5---5-----0----1-----1----3-----1-----|
A#|--3-----3---3----------(0)------------------------------------------|


[Chorus 4]

Guitar 1: (The final fight I'll win)
 C|------8----------8----------8----------8----------8-----------------|
 G|---------10---------10---------10---------10---------10-8-----6-----|
D#|--10---------10---------10---------10---------10--------------------|
A#|--------------------------------------------------------------------|
 F|--------------------------------------------------------------------|
A#|--------------------------------------------------------------------|


[Outro]

Guitar 2 (Ben):
 C|--------------------------------------------------------------------|
 G|--------------------------------------------------------------------|
D#|--2----------2------3-----------------------------------------------|
A#|--0----------2------3-----------------------------------------------|
 F|--0----------0------1-----------------------------------------------|
A#|--0-----------------------------------------------------------------|


[Outro]

Guitar 1 (Aaron):
 C|----------5---------8-----------------------------------------------|
 G|-----6-h8----5------6-----------------------------------------------|
D#|----------------5---7-----------------------------------------------|
A#|--------------------------------------------------------------------|
 F|--------------------------------------------------------------------|
A#|--------------------------------------------------------------------|


                             
************************************

| x    scratch
| (n)  Ghost note
| h    Hammer-on
| p    Pull-off
| /    Slide up
| \    Slide down
| pm   palm mute       
| ()   optional     

************************************

            
            
Suggest correction
Creating personal tab
Creating personal tab
You can edit any tab online and save it as your Personal.

You can edit, replace or remove any tab part or add personal notes – all changes will be seen only by you.

Personal tabs can be accessed anytime from any device, even offline.
Learn more »
comments
print report bad tab
55 comments total. Showing first comments.
0 reply
Bass Pants 1,920 Jun 18, 2007 12:18 PM

once again U B the band has made a good breaking benjamin tab, 4 stars

0 reply
U B the band 3,023 Jun 18, 2007 12:56 PM

I just have to add the solo now.

+2 reply
70x7 56 Jun 18, 2007 01:18 PM

Is there an acoustic guitar somewhere in the verse or is it just me?

guest
You may want to rate the tab now too:
select rating
Wanna post a correction for this tab? Suggest correction