Oops, an error
Loading. Please wait.

Until The End bass

version 4
version 4

Whole song

Interactive

1,544 views 1 this week
1 commentread comment
1 2 3 4 5
1 last vote to show rating
add to favorites
×
Save as Personal and add changes to this tab that will be seen only by you. Learn more ›
×
You can save this tab as Personal to edit and correct it or add notes. All changes will be seen only by you. Learn more »
launch autoscroll
font size
0
reset
guitar tuner
backing track
0:00
0:00
edit
Autoscroll
slow
fast
+/-
esc
set tempo
stop
Author
Band: Breaking Benjamin
Song: Until The End
Album: Phobia
Tuning 5-string: A# E A D G    your B 1/2step down
Tabbed By ClosedRoad
But the credit goes to "U B The Band" this is a copy of his 4-string tab but I made It 
a 5-string bass so you don't have to tune down your whole bass

Intro prt I
G  ---------------------------------------------------|
D  ---------------------------------------------------|
A  ---------------------------------------------------|
E  ---------------------------------------------------|
A# -0---0-0---0----0322----0-------0-0----0------0h1--|

Intro Prt II
G  -----------------------------------------------------------------------|
D  -----------------------------------------------------------------------|
A  -----------------------------------------------------------------------|
E  ----------------------------------------------------------4h666--4h777-|
A# -0-0--0--0-0--032-0-0--0--320320--0-0--0--0-0--0--0-0--0---------------|

Intro Prt III
G  --------------------------------------------------------------------|
D  --------------------------------------------------------------------|
A  ---------------------------------------------------------1-3-4------|
E  --------------------------------------------------------------------|
A# -0-0--0--0-0--032-0-0--0--320320--0-0--0--0-0--0--0-0--0--------0~--|

Verse                    3x                     1x
G  -----------------------|----------------------|
D  -----------------------|----------------------|
A  -----------------------|----------------------|
E  -1-----2----4---2------|--1-----2----44---22--|
A# -------------------0~--|----------------------|

Chorus
G  ------------------------------------------|
D  ------------------------------------------|
A  ---------------4--------------------------| 2x
E  ----------4--6---66-6---1--2---2--4----2--|
A# -3---33-3---------------------------------|

intro Prt III 1x
Verse
Chorus 3x

Bridge
G  ----------------------------|
D  ----------------------------|
A  ----------------------------|
E  --------1-----2-----4----2--|
A# --0~------------------------|

G  ---------------------------------------- |
D  -----------------------------------| --- |
A  -----------------------------------|  -- |
E  -----------------------------------|  -- |
A# -0-0--12--10h11p10--7---5h6p5---3--|  -- |
                                          |- 2x
G  -----------------------------------|  -- |
D  -----------------------------------|  -- |
A  -----------------------------------|  -- |
E  -----------------------------------| --- |
A# -0-0--12--10h12p10--7---6---5----------- |

Solo
G  ----------------------------|
D  ----------------------------|
A  ---4-3---4-3---4-3---4---3--| 2x
E  -------1-----2-----4---2----|
A# -0--------------------------|

Chorus 5x

End
G  -------------|
D  -------------|
A  -------------|
E  -----1----2--|
A# -0-----------|

That's It Great Song
Greetings ClosedRoad

            
            
Suggest correction
Creating personal tab
Creating personal tab
You can edit any tab online and save it as your Personal.

You can edit, replace or remove any tab part or add personal notes – all changes will be seen only by you.

Personal tabs can be accessed anytime from any device, even offline.
Learn more »
Give kudos to tab author, rate the tab!
1 2 3 4 5
comments
print report bad tab
1 comment total.
0 reply
U B the band 3,023 Aug 25, 2007 04:35 PM

Looks good.

guest
You may want to rate the tab now too:
select rating
Wanna post a correction for this tab? Suggest correction