Oops, an error
Loading. Please wait.

What Lies Beneath Acoustic chords

version 1
version 1

Whole song

Interactive

38,419 views 84 this week
3 commentsread comments
1 2 3 4 5
x 18
add to favorites
×
Save as Personal and add changes to this tab that will be seen only by you. Learn more ›
×
You can save this tab as Personal to edit and correct it or add notes. All changes will be seen only by you. Learn more »
launch autoscroll
font size
0
reset
transpose
0
reset
simplify chords
display chords
guitar tuner
edit
Autoscroll
slow
fast
+/-
esc
set tempo
stop
Strumming
There is no strumming pattern for this song yet. and get +5 IQ
----------------------------------------------------------------------------            
What Lies Beneath (acoustic) - Breaking Benjamin
----------------------------------------------------------------------------
Tabbed by: Zthokymerej
Tuning: Half-step down.


Chords:

      G      C     Cmaj7   D    B5   G5   Em   Em5    C*   C5   C5*
D#|---3------0------0------2---------------0-------------------------------|
A#|---3------1------0------3---------------0-------------0-----------------|
F#|---0------0------0------2-----4---------0----(0)------0----5----4-------|
C#|---0------2------2------0-----4----5----2-----2-------4----5----5-------|
G#|---2------3------3------------2----5----2-----2-------3----3----2-------|
D#|---3-------------------------------3----0-----0-------------------------|


[Intro]

D#|-------------------------------------------------------------------------|
A#|-------------------------------------------------------------------------|
F#|------------------------2-------0--------------0-------------0-----------|
C#|----------4----------0-------------4--------4-----------4------4--0------|
G#|------2----------------------------------3------------5---5--------------|
D#|--0---------------3----------3-------------------------------------------|


[Verse]

D#|------------------------------------------------------------------------|
A#|------------------------------------------------------------------------|
F#|------------------------2------------0------------------0---------------|
C#|----------4----------0----------4------4--0----------4------------------|
G#|------2-----------------------5---5---------------3---------------------|
D#|--0----------------3----------------------------------------------------|(x4)


[Verse 1]

           Em
Take a breath
          G
Hold it in
           D
Start a fight
            C* (or just C)
You won't win
         Em
Had enough
          G
Let's begin
         D
Nevermind
          C*
I don't care

(same chords)

All in all
You're no good
You don't cry
Like you should
Let it go
If you could
When love dies in the end


[Chorus]

  G                                     D
       So I'll find what lies beneath
             B5    Em
Your sick twis-ted smile
     D         Cmaj7
As I lie underneath
     C     D     G
Your cold ja-ded eyes
(G still)                  D
Now you turn the tide on me
               B5    Em
'Cause you're so unkind
       D          Cmaj7
I will al-ways be here
        C      B5        (into verse again)
For the rest of  my life


[Verse 3]
(verse or verse chords)

Here we go
Does it hurt
Say goodbye
To this world
I will not
Be undone
Come to life
It gets worse

All in all
You're no good
You don't cry
Like you should
I'll be gone
When you fall
Your sad life
Says it all


[Chorus]
(chorus chords)

So I'll find what lies beneath
Your sick twisted smile
As I lay underneath
Your cold jaded eyed
Now you turn the tide on me
'Cause you're so unkind
I will always be here
For the rest of my life


[Bridge]

D#|-------------------------------------------------------------------------|
A#|-------------------------------------------------------------------------|
F#|---------000000------------000000----------------------------------------|
C#|-2--2222-----------2--2222-----------------------------------------------|
G#|-2--2222-----------2--2222-----------------------------------------------|
D#|-0--0000-----------0--0000-----------------------------------------------|(x2)
         
                                           C5              C5*
         1.(Dont)               Carry me under; youre the devil in diguise
                                             C5                C5*
         2.(God)                Sing for the hopeless; i'm the one you
                                                       Em D C (once each)  
                                                left be-hind


[Chorus]  
(chorus chords)

So I'll find what lies beneath
Your sick twisted smile
As I lay underneath
Your cold jaded eyed
Now you turn the tide on me
'Cause you're so unkind
I will always be here
For the rest of my life



************************************

| (n)  Ghost note

************************************

            
            
Suggest correction
Creating personal tab
Creating personal tab
You can edit any tab online and save it as your Personal.

You can edit, replace or remove any tab part or add personal notes – all changes will be seen only by you.

Personal tabs can be accessed anytime from any device, even offline.
Learn more »
comments
print report bad tab
3 comments total.
+2 reply
Rawwk Savvy 30 Mar 21, 2010 01:26 AM

DUDE AMAZING TAB! Its crazy how fast tabs for BB's new album are up.Video is pretty nice to.Keep it rawkin man

+2 reply
a7x-GoD 10 May 13, 2011 03:12 PM

thanks man good job 5/5 :)~!

0 reply
neiluj7 136 Dec 01, 2013 08:39 AM

Breaking Benjamin forever.

guest
You may want to rate the tab now too:
select rating
Wanna post a correction for this tab? Suggest correction