Oops, an error
Loading. Please wait.

You Fight Me bass

version 1
version 1

Whole song

Interactive

1,570 views 1 this week
no commentswrite comment
1 2 3 4 5
1 last vote to show rating
add to favorites
×
Save as Personal and add changes to this tab that will be seen only by you. Learn more ›
×
You can save this tab as Personal to edit and correct it or add notes. All changes will be seen only by you. Learn more »
launch autoscroll
font size
0
reset
guitar tuner
edit
Autoscroll
slow
fast
+/-
esc
set tempo
stop
Author
“You Fight Me” – Breaking Benjamin

Tuning A#, F, A#, G#

Intro
G#|------------------|
A#|------------------|
F |------------------|
A#|-0—-2-0-2---0~----| x4

Verse x5
G#|------------------|
A#|------------------|
F |------------------|
A#|-0—-2-0-2---0~----| 

G#|--------------------------|
A#|--------------------------|
F |--------------------------|
A#|-0---2-0-2-2--2p0---------|

Pre-Chorus x2 (stop on the ringing 9 the second time
G#|-----------------------------------------------------|
A#|-----------------------------------------------------|
F |-7-7-7—5-7-7-7-7/9~----------------------------------|
A#|--------------------------0---2-0-2—--2p0------------|

Chorus x2 (play the 5’s only on the 2nd round of the chorus)
G#|------------------------------------------------------|
A#|------------------------------------------------------|
F |--------------------------------333-33-3-555-55-5-----|
A#|--222-22-22-2h3--222-22-22-22p1-----------------------|

Verse x2

Pre-Chorus 2
G#|------------------------|
A#|------------------------|
F |-7-7-7-7-7-7-7-7-7/9----|
A#|------------------------|

G#|-------------|
A#|-------------|
F |-5-5---5-8-5-|
A#|-------------| 

Break 2
G#|--------------------|
A#|--------------------|
F |-5-5-5-6-8-5-5-5----|
A#|--------------------| x1

Bridge
G#|------------------------------------|
A#|------------------------------------|
F |-3-3-3-3-3-3-3-3-6-6-6-6-6-6-6-6-4\-|
A#|------------------------------------|

Break 2 x1

Bridge x1 but don’t play the last 4 

Chorus x4

Verse x2

End


            
            
Suggest correction
Creating personal tab
Creating personal tab
You can edit any tab online and save it as your Personal.

You can edit, replace or remove any tab part or add personal notes – all changes will be seen only by you.

Personal tabs can be accessed anytime from any device, even offline.
Learn more »
Give kudos to tab author, rate the tab!
1 2 3 4 5
comments
print report bad tab
guest
You may want to rate the tab now too:
select rating
Wanna post a correction for this tab? Suggest correction