Oops, an error
Loading. Please wait.

You Fight Me tab

version 1
version 1

Whole song

Interactive

6,454 views 1 this week
12 commentsread comments
1 2 3 4 5
x 10
add to favorites
×
Save as Personal and add changes to this tab that will be seen only by you. Learn more ›
×
You can save this tab as Personal to edit and correct it or add notes. All changes will be seen only by you. Learn more »
launch autoscroll
font size
0
reset
how to read this tab
guitar tuner
edit
Autoscroll
slow
fast
+/-
esc
set tempo
stop
Breaking Benjamin -  You Fight Me
Phobia - Track #12

Guitar 1 - Aaron Fincke 
Guitar 2 - Ben Burnley

Here are all the guitars parts for the song.  I did not tab the piano
parts, but I might in the future.  You are going to need a PRS Custom 24
to be able to play this song due to Aaron's lead parts toward the 
end of the song.....have fun!


Guitar 1 - with slide (:12)  6x
C |0s12-----|
G |---------|
Eb|---------|
Bb|---------|
F |---------|
Bb|---------|


Guitar 2 - Heavy Dist.       6x
C |---------------------------|
G |---------------------------|
Eb|---------------------------|
Bb|------2-0-2--0-0--0000-----|
F |------2-0-2--0-0--0000-----|
Bb|------2-0-2--0-0--0000-----|
                       ^^^^ - take the whammy bar and switch it back
                              and forth quickly between the bridge              
                              and neck position, but dont pick!!

VERSE/PRE-CHORUS
Guitar 1 w/slide - (1.02)
C |0s10--------------------10s7---|
G |-------------------------------|
Eb|-------------------------------|
Bb|-------------------------------|
F |-------------------------------|
Bb|-------------------------------|

CHORUS
Both Guitars - (1.09) 
NOTE: Guitar 1 is come in a few strums into this part b/c the slide
      from the last part carries over into this part.
C |-----------------------------------------------------------|
G |-----------------------------------------------------------|
Eb|-----------------------------------------------------------|
Bb|222-22-22-2--222-22-22-22-10101010101010101010101010101010-|
F |222-22-22-2--222-22-22-22-10101010101010101010101010101010-|
Bb|222-22-22-2--222-22-22-22-10101010101010101010101010101010-|

Both Guitars - (1:18)
C |-----------------------------------------------------------|
G |-----------------------------------------------------------|
Eb|-----------------------------------------------------------|
Bb|222-22-22-2--222-22-22-22-10101010101010101010101010101010-|
F |222-22-22-2--222-22-22-22-10101010101010101010101010101010-|
Bb|222-22-22-2--222-22-22-22-10101010101010101010101010101010-|

C |------------------------|
G |------------------------|
Eb|------------------------|
Bb|-555555555s9999-x-9<----|
F |-555555555s9999-x-9<----|
Bb|-555555555s9999-x-9<----|


VERSE
Guitar 1 - (1.32)                2x
C |0s12-----|
G |---------|
Eb|---------|
Bb|---------|
F |---------|
Bb|---------|


Guitar 2 - Heavy Dist.  (1.32)   2x
C |---------------------------|
G |---------------------------|
Eb|---------------------------|
Bb|------2-0-2--0-0--0000-----|
F |------2-0-2--0-0--0000-----|
Bb|------2-0-2--0-0--0000-----|
                       ^^^^ - take the whammy bar and switch it back
                              and forth quickly between the bridge              
                              and neck position.

Guitar 1 - (1.54)
C |10s7-----------|
G |---------------|
Eb|---------------|
Bb|---------------|
F |---------------|
Bb|---------------|

Both Guitars - (2.06)
C |-------------------------------------------------|
G |-------------------------------------------------|
Eb|-------------------------------------------------|
Bb|-xxxx-10101010101010101010101010101010--14<<<<---|
F |-xxxx-10101010101010101010101010101010--14<<<<---|
Bb|-xxxx-10101010101010101010101010101010--14<<<<---|

Both Guitars - (2.17)
C |------------------------------------------|
G |------------------------------------------|
Eb|------------------------------------------|
Bb|-xxxx-10101010101010101010101010101010----|
F |-xxxx-10101010101010101010101010101010----|
Bb|-xxxx-10101010101010101010101010101010----|


Guitar 1 (2.21)               v--- tremolo picking
C |--------------15-17-19-22-24--------|
G |17-19-20-22-------------------------|
Eb|------------------------------------|
Bb|------------------------------------|
F |------------------------------------|
Bb|------------------------------------|

Guitar 2 2.21
C |------------------------------------|
G |------------------------------------|
Eb|------------------------------------|
Bb|222-22-22-2--222-22-22-22-10--------|
F |222-22-22-2--222-22-22-22-10-(32x)--|
Bb|222-22-22-2--222-22-22-22-10--------|

Guitar 1 - (2.34)            v--- tremolo picking
C |--------------15-17-19-22-24--------|
G |17-19-20-22-------------------------|
Eb|------------------------------------|
Bb|------------------------------------|
F |------------------------------------|
Bb|------------------------------------|

Guitar 2 - (2.34)
C |-----------------------------------------------------------|
G |-----------------------------------------------------------|
Eb|-----------------------------------------------------------|
Bb|222-22-22-2--222-22-22-22-10101010101010101010101010101010-|
F |222-22-22-2--222-22-22-22-10101010101010101010101010101010-|
Bb|222-22-22-2--222-22-22-22-10101010101010101010101010101010-|
Guitar 2 continued....
C |------------------------|
G |------------------------|
Eb|------------------------|
Bb|-555555555s9999-x-9<----|
F |-555555555s9999-x-9<----|
Bb|-555555555s9999-x-9<----|

Repeat INTRO 2x  (2.50)
Suggest correction
Creating personal tab
Creating personal tab
You can edit any tab online and save it as your Personal.

You can edit, replace or remove any tab part or add personal notes – all changes will be seen only by you.

Personal tabs can be accessed anytime from any device, even offline.
Learn more »
comments
print report bad tab
12 comments total. Showing first comments.
0 reply
jaames 1,351 Aug 10, 2006 10:02 AM

keep it up dude, 5.

+3 reply
Zuka 403 Aug 23, 2006 03:37 PM

You don't need a PRS 24 for it. Haha! You just need 24 frets...

+1 reply
incubosity 1,595 Aug 23, 2006 06:33 PM

Dude, they play PRS's...thats why I put it...dont be a tool.

guest
You may want to rate the tab now too:
select rating
Wanna post a correction for this tab? Suggest correction