Oops, an error
Loading. Please wait.

You intro tab

version 2
version 2

Intro

Whole song

Interactive

5,999 views 1 this week
2 commentsread comments
1 2 3 4 5
2 more votes to show rating
add to favorites
×
Save as Personal and add changes to this tab that will be seen only by you. Learn more ›
×
You can save this tab as Personal to edit and correct it or add notes. All changes will be seen only by you. Learn more »
launch autoscroll
font size
0
reset
how to read this tab
guitar tuner
edit
Autoscroll
slow
fast
+/-
esc
set tempo
stop
Author
Difficulty
Breaking Benjamin - You
Phobia - Track #4

Guitar 1 - Aaron Fincke

The song's in standard tuning...it says so on their website.  Rest coming very very soon!!!

INTRO
Guitar 1 - Clean     4x
e|----------------------------------------------|
B|----------------------------------------------|
G|--11--11-----11--11-----11--11-----11--11-----|
D|-9---9---9--9---9---9--9---9---9--9---9---9---|
A|7---7---7--7---7---7--------------------------|
E|----------------------8---8---8--8---8---8----|

Guitar 1 - Clean     1x
e|----------------------------------------------|
B|----------------------------------------------|
G|--11--11-----11--11-----11--11----------------|
D|-9---9---9--9---9---9--9---9---9--------------|
A|7---7---7--7---7---7--------------------------|
E|----------------------8---8---8---8-8-8-8-8-8-|
Suggest correction
Creating personal tab
Creating personal tab
You can edit any tab online and save it as your Personal.

You can edit, replace or remove any tab part or add personal notes – all changes will be seen only by you.

Personal tabs can be accessed anytime from any device, even offline.
Learn more »
Give kudos to tab author, rate the tab!
1 2 3 4 5
comments
print report bad tab
2 comments total.
0 reply
I-Z 214 Aug 22, 2006 05:41 PM

THIS IS REALLY GOOD.........SO FAR HAHA HOPE THE REST IS GONNA BE THIS GOOD

0 reply
b_ball_girl1021 104 May 30, 2007 11:07 AM

perfect!!!!!! 5*

guest
You may want to rate the tab now too:
select rating
Wanna post a correction for this tab? Suggest correction