Oops, an error
Loading. Please wait.

You tab

version 1
version 1

Whole song

Interactive

13,259 views 21 this week
7 commentsread comments
1 2 3 4 5
x 12
add to favorites
×
Save as Personal and add changes to this tab that will be seen only by you. Learn more ›
×
You can save this tab as Personal to edit and correct it or add notes. All changes will be seen only by you. Learn more »
launch autoscroll
font size
0
reset
how to read this tab
guitar tuner
edit
Autoscroll
slow
fast
+/-
esc
set tempo
stop
Author
Difficulty
Breaking Benjamin - You
Phobia - Track #4

Guitar 1 - Aaron Fincke
Guitar 2 - Ben Burnley

Tuning: Standard

This has got to be 98%+ correct.  The 2nd guitar behind the post chorus
lead is tough to hear and probably should be turned down as to not
overpower the lead.

INTRO
Guitar 1 - Clean     4x
e|--------------------------------------------------|
B|--------------------------------------------------|
G|--11--11-----11--11-----11--11-----11--11---------|
D|-9---9---9--9---9---9--9---9---9--9---9---9-------|
A|7---7---7--7---7---7------------------------------|
E|----------------------8---8---8--8---8---8--------|

Guitar 1 - Clean     1x
e|----------------------------------------------|
B|----------------------------------------------|
G|--11--11-----11--11-----11--11----------------|
D|-9---9---9--9---9---9--9---9---9--------------|
A|7---7---7--7---7---7--------------------------|
E|----------------------8---8---8--8-8-8-8-8-8-8|

CHORUS
Both Guitars
e|----------------------------------------------|
B|----------------------------------------------|
G|10-101010-1010-1010-10101010-5-555-55---------|
D|10-101010-1010-1010-10101010-5-555-55-5-5-x5--|
A|8--8-8-8--8-8--8-8--8-8-8-8--3-333-33-5-5-x5--|
E|8--8-8-8--8-8--8-8--8-8-8-8--3-333-33-3-3-x3--|

e|----------------------------------------------|
B|----------------------------------------------|
G|10-101010-1010-1010-10101010-5-555-55---------|
D|10-101010-1010-1010-10101010-5-555-55--55-555-|
A|8--8-8-8--8-8--8-8--8-8-8-8--3-333-33--55-555-|
E|8--8-8-8--8-8--8-8--8-8-8-8--3-333-33--33-333-|

e|------------------------------------------------------|
B|---------------------------------------------------9--|
G|10-101010-1010-1010-10101010-5-555-55---------10---10-|
D|10-101010-1010-1010-10101010-5-555-55--55-555-10---9--|
A|8--8-8-8--8-8--8-8--8-8-8-8--3-333-33--55-555-8-------|
E|8--8-8-8--8-8--8-8--8-8-8-8--3-333-33--33-333-8-------|

POST CHORUS
Guitar 1 - Phaser and Reverb
e|12121212------12121212----------------12121212-1414141414-10101010|
B|-------12121212------12121212-13131313----------------------------|
G|------------------------------------------------------------------|
D|------------------------------------------------------------------|
A|------------------------------------------------------------------|
E|------------------------------------------------------------------|

e|12121212------12121212----------------12121212-1414141414-10101010|
B|-------12121212------13131313-12121212----------------------------|
G|------------------------------------------------------------------|
D|------------------------------------------------------------------|
A|------------------------------------------------------------------|
E|------------------------------------------------------------------|

Guitar 2 - 3x
e|------------------------------------------------|
B|------------------------------------------------|
G|9999999999999999-5555555555555555---------------|
D|9999999999999999-5555555555555555---------------|
A|7777777777777777-3333333333333333---------------|
E|7777777777777777-3333333333333333---------------|

VERSE
Guitar 1 - reverb; use slight palm mutes throughout
  .        .         .        .
e|----------------------------------------|
B|----------------------------------------|
G|---11-11-----11-11----11-11----11-11----|
D|--9--9------9--9-----9--9-----9--9------|
A|7--------7------------------------------|
E|-------------------8--------8-----------|

  .        .         .        .
e|------------------------------------------|
B|------------------------------------------|
G|---11-11-----11-11----11-11----11-11-12-11|
D|--9--9------9--9-----9--9-----9-----------|
A|7--------7--------------------------------|
E|-------------------8--------8-------------|

  .        .         .        .
e|----------------------------------------|
B|----------------------------------------|
G|---11-11-----11-11----11-11----11-11----|
D|--9--9------9--9-----9--9-----9--9------|
A|7--------7------------------------------|
E|-------------------8--------8-----------|

  .        .         .
e|----------------------------------------|
B|----------------------------------------|
G|---11-11-----11-11----11-11-------------|
D|--9--9------9--9-----9--9-----9999999---|
A|7--------7--------------------xxxxxxx---|
E|-------------------8--------8-8888888---|

CHORUS - 1x

BRIDGE
Guitar 2 - wah in the closed position (Guitar 2 is tabbed 5 bars down)
e|---------------------------------------------------------------|
B|---------------------------------------------------------------|
G|---------------------------------------------------------------|
D|---------------------------------------------------------------|
A|77777777777777773333333333333333777777777777777333333333333333-|
E|---------------------------------------------------------------|

Guitar 1 - starts right here --------------------^

Guitar 1 - phaser and reverb
e|19-------------------12121212--------12121212----------------12121212-|
B|---19191919-15-(8x)----------12121212--------12121212-13131313--------|
G|----------------------------------------------------------------------|
D|----------------------------------------------------------------------|
A|----------------------------------------------------------------------|
E|----------------------------------------------------------------------|

e|1414141410101010-12121212--------12121212----------------1212121214141414|
B|-------------------------12121212--------1313131312121212----------------|
G|-------------------------------------------------------------------------|
D|-------------------------------------------------------------------------|
A|-------------------------------------------------------------------------|
E|-------------------------------------------------------------------------|

e|10101010-12121212--------12121212-----------------12121212-14141414--|
B|-----------------12121212--------12121212-13131313-------------------|
G|---------------------------------------------------------------------|
D|---------------------------------------------------------------------|
A|---------------------------------------------------------------------|
E|---------------------------------------------------------------------|

e|10101010-12121212--------12121212--12-14-15-----|
B|-----------------12121212--------12-------------|
G|------------------------------------------------|
D|------------------------------------------------|
A|------------------------------------------------|
E|------------------------------------------------|

Guitar 2 - 3x
e|------------------------------------|
B|------------------------------------|
G|9999999999999999-5555555555555555---|
D|9999999999999999-5555555555555555---|
A|7777777777777777-3333333333333333---|
E|7777777777777777-3333333333333333---|

Guitar 2 - 1x
e|----------------------|
B|----------------------|
G|9999999999999-9-5-----|
D|9999999999999-9-5-----|
A|7777777777777-7-3-----|
E|7777777777777-7-3-----|

            
            
Suggest correction
Creating personal tab
Creating personal tab
You can edit any tab online and save it as your Personal.

You can edit, replace or remove any tab part or add personal notes – all changes will be seen only by you.

Personal tabs can be accessed anytime from any device, even offline.
Learn more »
comments
print report bad tab
7 comments total. Showing first comments.
0 reply
I-Z 214 Aug 23, 2006 05:53 PM

its all good...except for the chord you put at the end of the chorus

it's not a chord its a slide
e|-----------------------------------------|
B|--------------------------------------1/9|
G|------------------5-555-55---------------|
D|3-333-33-33-3333--5-555-55--55-555--3----|
A|3-333-33-33-3333--3-333-33--55-555--3----|
E|1-111-11-11-1111--3-333-33--33-333--1----|

0 reply
I-Z 214 Aug 23, 2006 05:53 PM

5* tho

0 reply
rocka_boy 10 Dec 26, 2006 06:35 AM

niceeeeeeeeeeeeeeeeeeeeeee

guest
You may want to rate the tab now too:
select rating
Wanna post a correction for this tab? Suggest correction