Oops, an error
Loading. Please wait.

Falling Down bass

version 1
version 1

Whole song

Interactive

426 views 1 this week
2 commentsread comments
1 2 3 4 5
x 3
add to favorites
×
Save as Personal and add changes to this tab that will be seen only by you. Learn more ›
×
You can save this tab as Personal to edit and correct it or add notes. All changes will be seen only by you. Learn more »
launch autoscroll
font size
0
reset
guitar tuner
edit
Autoscroll
slow
fast
+/-
esc
set tempo
stop
Author
Song: Falling Down
Artist: Breaking Point
Album: Coming of Age
Tuning: Standard (BEADG)
NOTE: This tab only provides what to play, you'll have to figure out the timing and how 
times you repeat certain parts yourself. Don't worry, you can do it, I believe in you! ;)

Intro:
G|----------------------------------------------------------|
D|----------------------------------------------------------|
A|----------------------------------------------------------|
E|-3-3--3-3--3-3--6-6--6-6--6-6-------------------------1-1-|
B|-------------------------------4-4--4-4--4-4--3-3-4-4-----|

G|--------------------------------------|
D|--------------------------------------|
A|---6--6--6--9--9--9--3--3--3--2--3--5-|
E|-------------------1--1--1------------|
B|-3--3--3--6--6--6-----------3--4--1---|

Verse:
G|------------------------------|
D|------------------------------|
A|------------------------------|
E|----------------1-1-1-1-3-3-3-|
B|-3-3-3-4-4-4-4----------------|

Chorus:
G|--------------|
D|----7---7-7---|
A|--------------|
E|-3---3------3-|
B|--------------|

Bridge:
G|----------------------|
D|----------------------|
A|----------------------|
E|-0-0-0-0-----0-0-0/2--|
B|---------4-4----------|

Outro:
G|--------------|
D|--------------|
A|--------------|
E|-0-0-0-0-0-0--|
B|--------4-----|

            
            
Suggest correction
Creating personal tab
Creating personal tab
You can edit any tab online and save it as your Personal.

You can edit, replace or remove any tab part or add personal notes – all changes will be seen only by you.

Personal tabs can be accessed anytime from any device, even offline.
Learn more »
Give kudos to tab author, rate the tab!
1 2 3 4 5
comments
print report bad tab
2 comments total.
0 reply
U B the band 3,023 Jul 10, 2007 06:22 PM

Sweet.....I am still surprised in how many tabs there are here! Seriously I thought Beautiful Disorder was an awesome CD. I think after my Breaking Benjamin tabbing I'll start on Breaking Point tabs. Oh and I rated this tab a 5.

0 reply
__Ronnie__ 1,009 Jul 11, 2007 06:56 AM

Sweet, I never thought Id ever find another Breaking Point fan! Please do more tabs from them, I'll vote for them to be accepted!

guest
You may want to rate the tab now too:
select rating
Wanna post a correction for this tab? Suggest correction