Oops, an error
Loading. Please wait.

Love Like Fire Tab

149 views 1 this week
no commentswrite comment
1 2 3 4 5
please rate
add to favorites
launch autoscroll
font size
0
reset
how to read this tab
guitar tuner
Autoscroll
slow
fast
+/-
esc
set tempo
stop
Help us to improve Ultimate-Guitar.com Take our survey!
×
Author
Difficulty
Tuning
intermediate
A# F A# D# G C
Begining of song:

A# --4-3-0-4-3-0000-4-3-0-4-3-0----------------------------------------|
F  --6-5-0-6-5-0000-6-5-0-6-5-0----------------------------------------|
A# ------0-----0000-----0-----0----------------------------------------| (x4)
D# --------------------------------------------------------------------|
G  --------------------------------------------------------------------|
C  --------------------------------------------------------------------|

FIRE FALL DOWN!! (chant)

Breakdown:

A# --2--(find out pattern)---------------------------------------------|
F  --1-----------------------------------------------------------------|
A# --------------------------------------------------------------------|
D# --------------------------------------------------------------------|
G  --------------------------------------------------------------------|
C  --------------------------------------------------------------------|

A# --0--(find out pattern)---------------------------------------------|
F  --0-----------------------------------------------------------------|
A# --0-----------------------------------------------------------------|
D# --------------------------------------------------------------------|
G  --------------------------------------------------------------------|
C  --------------------------------------------------------------------|

Riff:

A# -00-----------00--------00------------------------------------------|
F  -00--8h10-7h8-00--10h12-00-5h8-4h7----------------------------------|
A# --------------------------------------------------------------------|
D# --------------------------------------------------------------------|
G  --------------------------------------------------------------------|
C  --------------------------------------------------------------------|

A# -00-----------00--------00------------------------------------------|
F  -00--8h10-7h8-00--------00-5h8-4h7----------------------------------|
A# ------------------8h11----------------------------------------------|
D# --------------------------------------------------------------------|
G  --------------------------------------------------------------------|
C  --------------------------------------------------------------------|

A# --000-4-3-000-2-1-000-4-3-000-2-1-000-000-000-000-------------------|
F  --000-6-5-000-1-0-000-6-5-000-1-0-000-000-000-000-------------------|
A# --000-----000-----000-----000-----000-000-000-000-------------------|
D# --------------------------------------------------------------------|
G  --------------------------------------------------------------------|
C  --------------------------------------------------------------------|

^ is the whole riff together
(the whole riff is 4 times)

Breakbeat:


A# --000-4-3-000-2-1-000-4-3-000-2-1-000-000-000-000-------------------|
F  --000-6-5-000-1-0-000-6-5-000-1-0-000-000-000-000-------------------|
A# --000-----000-----000-----000-----000-000-000-000-------------------|
D# --------------------------------------------------------------------| (x4)
G  --------------------------------------------------------------------|
C  --------------------------------------------------------------------|

Build up stomp:

A# --0-4-3-2----------(figure pattern)---------------------------------|
F  --0-6-5-1-----------------------------------------------------------|
A# --0-----------------------------------------------------------------|
D# --------------------------------------------------------------------|
G  --------------------------------------------------------------------|
C  --------------------------------------------------------------------|

Clean vox:

A# --8---7----0-(figure pattern)---------------------------------------|
F  --8---7-------------------------------------------------------------|
A# --10--10------------------------------------------------------------|
D# --------------------------------------------------------------------|
G  --------------------------------------------------------------------|
C  --------------------------------------------------------------------|

BREAKDOWN:
w/sweep

A# --1--(find out pattern)---------------------------------------------|
F  --0-----------------------------------------------------------------|
A# --------------------------------------------------------------------|
D# --------------------------------------------------------------------|
G  --------------------------------------------------------------------|
C  --------------------------------------------------------------------|

A# --0--(find out pattern)---------------------------------------------|
F  --0-----------------------------------------------------------------|
A# --0-----------------------------------------------------------------|
D# --------------------------------------------------------------------|
G  --------------------------------------------------------------------|
C  --------------------------------------------------------------------|

this is the song! just figure pattern

http://www.myspace.com/breakingthechains777

Add us!
Suggest correction
Give kudos to tab author, rate the tab!
1 2 3 4 5
comments
print report bad tab
guest
You may want to rate the tab now too:
select rating
Please do not post tabs as comments. Select "correction" instead!