Oops, an error
Loading. Please wait.

One For The Road tab

version 1
version 1

Whole song

Interactive

3,082 views 1 this week
5 commentsread comments
1 2 3 4 5
x 6
add to favorites
×
Save as Personal and add changes to this tab that will be seen only by you. Learn more ›
×
You can save this tab as Personal to edit and correct it or add notes. All changes will be seen only by you. Learn more »
launch autoscroll
font size
0
reset
how to read this tab
guitar tuner
backing track
0:00
0:00
edit
Autoscroll
slow
fast
+/-
esc
set tempo
stop
Difficulty
intermediate
A|-----------------------------|-----5-7-7-7-7------------------|
F|-----------------------------|--------------------------------|
C|--5-7-7-7-7----------------X4|--------------------------------|
G|--3-5-5-5-5--0-0--0-0-0-0----|-----3-5-5-5-5------------------|
C|-------------0-0--0-0-0-0----|----------------0-0--0-0-0-0----|


D|---------------------------------------------------------------------------|
A|--12^--12/-----------------------------------------------------------------|
F|--12^--12/--10-------------------------------------------------------------|
C|----------------12/p10----------------------------------------------------|
G|------------------------12/s/10--10/p8----8-10--10^-10^-(10)*--------------|
C|----------------------------------------12----------------------12-10------|
* = release bend. |-hold bend up throughout|
D|----------------|------------------13-----------------------------------------|
A|----------------|--12^-12/-----13^--13^-------------(ghostnote)---------------|
F|----------------|--12^-12/--10----------12^-12^-12/-10------------------------|
C|----------------|----------------------------------------12-10--10-10h12-12---|
G|----------8-----|-------------------------------------------------------------|
C|-10-10-12---12--|-------------------------------------------------------------|


D|----------------------------------------------|
A|----------------------------------------------|
F|----------------------------------------------|
C|----------------------------------------------|
G|-4-3-3-3-3--4-3-3-3-3---8-5-5-5-5--8-5-5-5-5--|
C|-4-3-3-3-3--4-3-3-3-3---8-5-5-5-5--8-5-5-5-5--|

D|----------------------------------------------|
A|----------------------------------------------|
F|----------------------------------------------|
C|-6-5-5-5-5--6-5-5-5-5--10-7-7-7-7-10-7-7-7-7--|x2.rhythm
G|-4-3-3-3-3--4-3-3-3-3---8-5-5-5-5--8-5-5-5-5--| listen to
C|----------------------------------------------|

D|----------------------------------------------------------------------------|
A|----------------------------------------------------------------------------|
F|----------------------------------------------------------------------------|
C|-12-12-12-12----------12-12-1111-1010--7-7-7-----------------------------5~-|
G|-10-10-10-10-(while)--10-10-9-9--8-8---5-5-5-----------------------------3~-|
C|----------------------------------------------------5-5-4-4-3-3---0-0-0-----|

breakdown
D|------------------------------------------|
A|------------------------------------------|
F|------------------------------------------|
C|------------------------------------------|
G|--12--0000---13-0-12-0000---8-11-12-0000--|
C|--12--0000---13-0-12-0000---8-11-12-0000--|

D|---------------------------------|--------------------------------|
A|---------------------------------|--------------------------------|
F|---------------------------------|--------------------------------|
C|---------------------------------|x4-------6----------------------|x4
G|-8-11-12-0-0-0-0-13-0-12-0-0-0-0-|-----5-8---------9---8----------|
C|-8-11-12-0-0-0-0-13-0-12-0-0-0-0-|-----------00000---0---00000----|

D|-------------------|-------------|----------------|-----|
A|-------------------|-------------|----------------|-----|
F|--7-7-7--7-7-7-7-7-|---10101010--|----17-17-17-17-|-----|
C|-------------------|x4-----------|x4--------------|-x4--|
G|--5-5-5--5-5-5-5-5-|----8-8-8-8--|----15-15-15-15-|-----|
C|---------0-0-0-0-0-|-------------|----------------|-----|

            
            
Suggest correction
Creating personal tab
Creating personal tab
You can edit any tab online and save it as your Personal.

You can edit, replace or remove any tab part or add personal notes – all changes will be seen only by you.

Personal tabs can be accessed anytime from any device, even offline.
Learn more »
comments
print report bad tab
5 comments total. Showing first comments.
0 reply
ChptOfDarkness 344 Apr 03, 2007 08:08 AM

best one on here.

0 reply
frankzappa17 10 Apr 17, 2007 02:13 PM

its about time i found a good tab for this song.

0 reply
The Knox 111 Oct 01, 2007 11:52 AM

Wow this is really good, you got all the bends right, nice job, 5 stars

guest
Wanna post a correction for this tab? Suggest correction