Oops, an error
Loading. Please wait.

Can I Take You Home tab

version 1
version 1

Whole song

1,474 views 1 this week
no commentswrite comment
1 2 3 4 5
2 more votes to show rating
add to favorites
×
Save as Personal and add changes to this tab that will be seen only by you. Learn more ›
×
You can save this tab as Personal to edit and correct it or add notes. All changes will be seen only by you. Learn more »
launch autoscroll
font size
0
reset
how to read this tab
guitar tuner
edit
Autoscroll
slow
fast
+/-
esc
set tempo
stop
Difficulty
e|----------------|----------------|Intro
B|----------------|----------------|
G|----------------|----------------|
D|----------------|----------------|
A|7-xxxx7-xxxx7-xx|7-xxxx7-xxxx7-xx|
E|----------------|----------------|
 |1&2&3&4&1&2&3&4&

e|----------------|----------------|----------------|------------  -  -  -  -|Verse
B|----------------|----------------|----------------|------------  -  -  -  -|
G|----------------|----------------|----------------|------------  -  -  -  -|
D|----------------|----------------|----------------|------------  -  -  -  -|(x3)
A|7-xxxx7-xxxx7-xx|7-xxxx7-xxxx7-xx|----------------|------------(10)(9)(8) -|
E|----------------|----------------|5-xxxx5-xxxx5-xx|7-xxxx7-xxxx  -  -  -  -|


e|----------------|----------------|----------------|----------------|
B|----------------|----------------|----------------|----------------|
G|----------------|----------------|----------------|----------------|
D|----------------|----------------|----------------|----------------|
A|7-xxxx7-xxxx7-xx|7-xxxx7-xxxx7-xx|----------------|----------------|
E|----------------|----------------|5-xxxx5-xxxx5-xx|7-xxxx7-xxxx7-xx|


Be Creative with the strumming pattern, it's an electronic song, so there's really no 
correct way.
P.S. you can play just the three notes, or the whole barred chord (The Parentheses)
again, there's no one right way
P.P.S. (P.S.S.?)
I Put the chord name under it, so if you wanted to play regular non-barrred chords 
you can.
P.P.P.S. (ah, you get the point)
I Believe the "?" Chord is a C w/o your index finger pressing anything

...Home?
e|--(3)-----(0)---|--(3)-----(3)---|Chorus
B|--(3)-----(0)---|--(3)-----(3)---|
G|5-(5)-----(0)---|--(4)-----(3)---|
D|5-(5)---2-(2)---|5-(5)---4-(4)---|(x2)
A|3-(3)---2-(2)---|5-(5)---5-(5)---|
E|--(3)---0-(0)---|3-(3)---3-(3)---|
  G        Em       C      altC?

Say it to me...                     ...Home?
e|--(0)-----(3)---|--(3)-----(3)---|--(3)-----(3)---|--(3)-----(3)---|
B|--(0)-----(3)---|--(3)-----(3)---|--(3)-----(3)---|--(3)-----(3)---|
G|--(0)---5-(5)---|--(4)-----(3)---|5-(5)---5-(5)---|--(3)-----(3)---|
D|2-(2)---5-(5)---|5-(5)---4-(4)---|5-(5)---5-(5)---|5-(5)---4-(4)---|
A|2-(2)---3-(3)---|5-(5)---5-(5)---|3-(3)---3-(3)---|5-(5)---5-(5)---|
E|0-(0)-----(3)---|3-(3)---3-(3)---|--(3)-----(3)---|3-(3)---3-(3)---|
  Em        G       C       ?        G       G        C       ?

(Intro again)
(Verse (There is one spot, i think on 7 on the low e, He kinda dies out on guitar... but 
what'evs)
(Chorus)

The Breakdown (if that's what you want to call it; Perhaps a Bridge?) is interesting... 
just play an E Power Chord whenever it feels like i should play it.
but here's something you can play if you absolutely have to lol.
P.S. Let these Chords Ring---

e|----------------|----------------|Bridge
B|----------------|----------------|
G|----------------|5---------------|
D|2-------2-------|5-------5-------|(x3)
A|2-------2-------|3-------5-------|
E|0-------0-------|--------3-------|

(Chorus)

The ending is played something like this.

e|- - - - - - - - - - - - - - - -|- - - - - - - 10- - - - - -    -  -|
B|- - - 11- 12- - - - - 11- 12- -|- - - 11- 12- - - 12- 11- 12 (11) 9|
G|- - 10- - - - - - - 10- - - - -|- - 10- - - - - - - - - - -    -  -|
D|- - - - - - - - - - - - - - - -|- - - - - - - - - - - - - -    -  -|
A|- - - - - - - - - - - - - - - -|- - - - - - - - - - - - - -    -  -|
E|- - - - - - - - - - - - - - - -|- - - - - - - - - - - - - -    -  -|
 |1 & 2 & 3 & 4 & 1 & 2 & 3 & 4 &|1 & 2 & 3 & 4 & 1 & 2 & 3 &    4  &|


So!

All-together, it's

Intro
Verse
Chorus
Intro
Verse
Chorus
Bridge
Extended Chorus!

If you guys see something wrong, don't look for an e-mail, just copy my tab and make the 
to it. I don't care.
Hopefully I got this Right though! ^.^

-Too lazy to make an account-
If you copy my tab, I guess there's no law that says you gotta give me credit, but 
be awesome!

Tab by:
Tanner W.

any (novice) requests? I doubt I'll get to them within a weeks time or anything, but I'm here!
tanner.welch50@gmail.com

            
            
Suggest correction
Creating personal tab
Creating personal tab
You can edit any tab online and save it as your Personal.

You can edit, replace or remove any tab part or add personal notes – all changes will be seen only by you.

Personal tabs can be accessed anytime from any device, even offline.
Learn more »
Give kudos to tab author, rate the tab!
1 2 3 4 5
comments
print report bad tab
guest
Wanna post a correction for this tab? Suggest correction