Oops, an error
Loading. Please wait.

Hello Fascination bass

1,770 views 1 this week
no commentswrite comment
1 2 3 4 5
3 more votes to show rating
add to favorites
×
Save as Personal and add changes to this tab that will be seen only by you. Learn more ›
×
You can save this tab as Personal to edit and correct it or add notes. All changes will be seen only by you. Learn more »
launch autoscroll
font size
0
reset
guitar tuner
edit
Autoscroll
slow
fast
+/-
esc
set tempo
stop
Difficulty
Standard Tuning 4-string. Imitation Synth
Intro             Verse             Chorus
-----------------|-----------------|---------------|
---6---5---6-----|---6---5---6---5-|-6---5-6---8-9-|
-3---6---3---6---|-3---6---3---6---|---6-----6-----|
-----------------|-----------------|---------------|
 8 4 2 2 8 4 2 P2  8 4 2 2 8 4 2 2   4 4 8 4 4 4 4

Fill            Verse  Chorus Bridge            Chorusx4
---------------|------|------|-----------------|---|
---6---5---6---|------|------|-------------6---|---|
-3---6---3-----|------|------|-3-3-3333--6---5-|---|
---------------|------|------|-----------------|---|
 8 4 2 2 8 4 P4                |_______| 4 2 2
                                  3x
FIRST! I love this. My bass teacher taught me this song, and it took a little to 
it. Bleh. Its crap I know :x


P# = Pause for # beats. Listen to the song before playing, there are a few things that 
different, so listen to the song carefully. Regular bass pluck, no pick needed regular 
up plucking. (That's what she said)
Suggest correction
Creating personal tab
Creating personal tab
You can edit any tab online and save it as your Personal.

You can edit, replace or remove any tab part or add personal notes – all changes will be seen only by you.

Personal tabs can be accessed anytime from any device, even offline.
Learn more »
Give kudos to tab author, rate the tab!
1 2 3 4 5
comments
print report bad tab
guest
Wanna post a correction for this tab? Suggest correction