Oops, an error
Loading. Please wait.

Rockin Around The Christmas Tree Bass Tab

version 1
version 1

Whole song

8,830 views 12 this week
no commentswrite comment
1 2 3 4 5
excellent!
x 4
add to favorites
launch autoscroll
font size
0
reset
guitar tuner
Autoscroll
slow
fast
+/-
esc
set tempo
stop
Help us to improve Ultimate-Guitar.com Take our survey!
×
Author
-----------------------------------------------------------------------------
               ROCKIN' AROUND THE CHRISTMAS TREE - Brenda Lee
-----------------------------------------------------------------------------

Tabbed by: Matt Broback
E-mail: 37hambone@gmail.com

Tuning: E A D G

s = sixteenth note

INTRO
|--------|--------|--------|--------|
|6---6--6|3---3--3|--------|--------|
|--------|--------|4---4---|6-4-3---|
|--------|--------|--------|------6-|


VERSE 1                 
|--------|--------|--------|--------|--------|--------|--------|--------|
|6------5|6--56---|---78---|---78---|---78---|---78---|---78--5|6-----5-|
|---56---|-------5|6------5|6------5|6------5|6------5|6-------|--6-8---|
|--------|--------|--------|--------|--------|--------|--------|--------|

|--------|--------|--------|--------|--------|--------|--------|--------|
|6------5|6--56---|---78---|---78---|---78---|---78---|---78-8-|6-4-3---|
|---56---|-------5|6------5|6------5|6------5|6------5|6-------|------6-|
|--------|--------|--------|--------|--------|--------|--------|--------|


CHORUS 1
|------3-|--------|--------|5-------|------3-|--------|3-------|--------|
|--3-6---|6-4-3---|--0-1-5-|--5-1---|3-5-6---|6-5-3-3-|--------|--------|
|4-------|------4-|3-------|------3-|--------|--------|--------|6-5-4---|
|--------|--------|--------|--------|--------|--------|--------|------6-|


VERSE 2
|--------|--------|--------|--------|--------|--------|--------|--------|
|6------5|6--56---|---78---|---78---|---78---|---78---|------5-|6-----5-|
|---56---|-------5|6------5|6------5|6------5|6------5|6--68---|--6-8---|
|--------|--------|--------|--------|--------|--------|--------|--------|


SOLO                          ss        ss      ss                 ss
|--------|5-5-6-7-|8-------|8------8-|8------8-|-----8-6-|5-------|-------4-|
|6-6-8-9-|--------|----5-8-|--8--8---|--8--8---|8--8-----|--8-5---|56-6-8---|
|--------|--------|--6-----|---6-----|---6-----|-6-------|------6-|---------|
|--------|--------|--------|---------|---------|---------|--------|---------|

                                                                 ss   
|5-------|--------|--------|---------|12-10-8----|----------|---------|--------|
|------8-|6-------|--------|-------8-|-----------|11-10-8---|5--------|--6-----|
|--8-6---|--6-----|------5-|6-8-10---|--------10-|--------6-|--8-6----|6---6-3-|
|--------|----8-7-|6-8-9---|---------|-----------|----------|-----8-6-|--------|


CHORUS 2
|--------|--------|--------|--------|--------|--------|3-------|--------|
|----6--6|--------|----5--5|------5-|3--3----|3--33---|--------|--------|
|4--4----|4--44--4|3--3----|3--36---|----3--3|--------|--------|6-5-4---|
|--------|--------|--------|--------|--------|--------|--------|------6-|


OUTRO
|--------|--------|--------|--------|--------|--------|
|-------5|6--56---|---78---|---78---|---78---|---78---|
|---56---|-------5|6------5|6------5|6------5|6-------|
|4-------|--------|--------|--------|--------|--------|

|--------|--------|----.----.|---------|--------|--------|
|--------|------5-|6-6-6--6-6|----.----|--------|6-------|
|--6---7-|--8-----|-----6----|8-8-8--8-|--------|-68-----|
|--------|--------|----------|-----8---|9-8-6-6-|---4----|
Suggest correction
comments
print report bad tab
guest
You may want to rate the tab now too:
select rating
Wanna post a correction for this tab? Suggest correction