Oops, an error
Loading. Please wait.

Sloth tab

103 views 6 this week
no commentswrite comment
1 2 3 4 5
2 more votes to show rating
add to favorites
×
Save as Personal and add changes to this tab that will be seen only by you. Learn more ›
×
You can save this tab as Personal to edit and correct it or add notes. All changes will be seen only by you. Learn more »
launch autoscroll
font size
0
reset
how to read this tab
guitar tuner
edit
Autoscroll
slow
fast
+/-
esc
set tempo
stop
Author
Difficulty
Music by: Brendan Perry (Eye of the Hunter, 1999)
Time signature: 3/4.
Tempo: approx. 64 bpm.

Chords

     A      A7     C    A6sus4
e|---0------0------0------2---|
B|---2------2------1------3---|
G|---2------0------0------2---|
D|---2------2------2------0---|
A|---0------0------3------0---|
E|---x------x------x------x---|


[Intro]

e|--------------------|
B|--2--------2--------|
G|-----2--------0-----| x4
D|--------2--------2--|
A|--0--------0--------|
E|--------------------|


[Verse]

e|--------------------------------------------------------------------------------------------|
B|--2--------2--------2--------2--------1--------3--------2--------2--------2--------2--------|
G|-----2--------0--------2--------0--------0--------2--------2--------0--------2--------0-----| x2
D|--------2--------2--------2--------2--------2--------0--------2--------2--------2--------2--|
A|--0--------0--------0--------0--------3--------0--------0--------0--------0--------0--------|
E|--------------------------------------------------------------------------------------------|

Sometimes when I'm alone I imagine that the world is a mirror
And in minds eye behold my dark inner nature


[Chorus]

e|--------------------------------------------------------|
B|--1--------3--------2--------2--------2--------2--------|
G|-----0--------2--------2--------0--------2--------0-----| x4
D|--------2--------0--------2--------2--------2--------2--|
A|--3--------0--------0--------0--------0--------0--------|
E|--------------------------------------------------------|

I've been waiting time on this time honoured whore
'til I get so confused I can't see anymore
And I have crawled where I should have seen the signs
Dragging my feet when I could have been flying


[Verse]

e|--------------------------------------------------------------------------------------------|
B|--2--------2--------2--------2--------1--------3--------2--------2--------2--------2--------|
G|-----2--------0--------2--------0--------0--------2--------2--------0--------2--------0-----| x2
D|--------2--------2--------2--------2--------2--------0--------2--------2--------2--------2--|
A|--0--------0--------0--------0--------3--------0--------0--------0--------0--------0--------|
E|--------------------------------------------------------------------------------------------|

Sometimes when I'm sad I drink to the health of my torment
And dance at the altar to the tune of a drunken black tango


[Chorus]

e|--------------------------------------------------------|
B|--1--------3--------2--------2--------2--------2--------|
G|-----0--------2--------2--------0--------2--------0-----| x6
D|--------2--------0--------2--------2--------2--------2--|
A|--3--------0--------0--------0--------0--------0--------|
E|--------------------------------------------------------|

I've been waiting time on this time honoured whore
'til I get so confused I can't see anymore
Wastes my mouth trying to settle old scores
Dragging my feet when I could have been flying
Dragging my feet when I could have been flying
Dragging my feet


[Outro]

e|--------------0-----|
B|--2--------2--------|
G|-----2-----------0--| x14
D|--------2-----------|
A|--0--------0--------|
E|--------------------|

Fly away, fly away, fly away, fly away...

            
            
Suggest correction
Creating personal tab
Creating personal tab
You can edit any tab online and save it as your Personal.

You can edit, replace or remove any tab part or add personal notes – all changes will be seen only by you.

Personal tabs can be accessed anytime from any device, even offline.
Learn more »
Give kudos to tab author, rate the tab!
1 2 3 4 5
comments
print report bad tab
guest
You may want to rate the tab now too:
select rating
Wanna post a correction for this tab? Suggest correction