Oops, an error
Loading. Please wait.

Solving Problems tab

985 views 30 this week
no commentswrite comment
1 2 3 4 5
2 more votes to show rating
add to favorites
×
Save as Personal and add changes to this tab that will be seen only by you. Learn more ›
×
You can save this tab as Personal to edit and correct it or add notes. All changes will be seen only by you. Learn more »
launch autoscroll
font size
0
reset
how to read this tab
guitar tuner
edit
Autoscroll
slow
fast
+/-
esc
set tempo
stop
About this tab version
This is not perfect and much of the rhythm is left for your ear to get right. Go with your ear over this tab. Was this info helpful? Yes No
[Intro] 
(no bass)
e|-----------------|-----------------|
B|---7---7---7---7-|---3---3---2---3-|
G|---7---7---7---7-|---4---4---2---2-|
D|---7---7---7---7-|---4---4---2---2-|
A|-5-------4-------|-2-------0-------|
E|-----------------|-----------------|

[Verse 1]
e|-----------------|-----------------|-----------------|-----------------|
B|---7---7---7---7-|---3---3---2---3-|---0---0---3---3-|---3---3---2---2-|
G|---7---7---7---7-|---4---4---2---2-|---0---0---2---2-|---0---0---0---0-|
D|---7---7---7---7-|---4---4---2---2-|---0---0---0---0-|---2---2---2---2-|
A|-5-------4-------|-2-------0-------|-----------------|---------0-------|
E|-----------------|-----------------|-3-------2-------|-0---------------|

G|-----------------|-----------------|-----------------|-----------------|
D|-----------------|-----------------|-----------------|-------------7s14|
A|-----------------|-----------------|-----------------|-----------------|
E|-----------------|-----------------|-----------------|-----------------|

Sittin' on the front porch on a Sunday afternoon
Just me and a buddy who I've known for a few years

e|-----------------|-----------------|-----------------|------------------|
B|---7---7---7---7-|---3---3---2---3-|---0---0---3---3-|---3---3----3---2-|
G|---7---7---7---7-|---4---4---2---2-|---0---0---2---2-|---0---0----2---2-|
D|---7---7---7---7-|---4---4---2---2-|---0---0---0---0-|---2---2----2---2-|
A|-5-------4-------|-2-------0-------|-----------------|----------0-------|
E|-----------------|-----------------|-3-------2-------|-0----------------|

G|-----------------|-----------------|-----------------|------------------|
D|-12--12--11--11--|-9---9---7---7---|-----------------|--------9-7---7---|
A|-----------------|-----------------|-10--10--9---9---|-7---7h9----------|
E|-----------------|-----------------|-----------------|------------------|
We figured since the weather's nice we might as well soak up the sights
Of Nashville with no suits and ties around

[Chorus]
  G                 A                 D       D/C#      Bm      A       
G|-----------------|-----------------|-----------------|-----------------|
D|-5-------5--5--5-|-7-------7-------|----4s12-11--11--|-9---9---7---7---|
A|-----5-------5---|-----7-------7---|-5-5--------12---|-----------------|
E|-----------------|-----------------|-----------------|-----------------|
Conversation covers everything and in between
From grandpa's health to marrying good girls

  G       A         G       A       
G|-----------------|-----------------|
D|-5-------7--7----|-5-------7-----7-|
A|-----5-------7---|-----5-------7---|
E|-----------------|-----------------|
Oh, we ain't up to nothing
Just solving all the problems of the world

[Instrumental]
e|---220-----220---|---220-----------|
B|------3-------3--|------3--3-3-2---|
G|-----------------|---------2-------|
D|-0---------------|---------2-------|
A|---------4-------|-2-------0-------|
E|-----------------|-----------------|

G|-----------------|-----------------|
D|-0---0-------7---|-----------------|
A|---------4--4--4-|-2---2---0---2-4-|
E|-----------------|-----------------|

Verse 2

  D       D/C#      Bm      A         G       D/F#      Em7     A       
G|-----------------|-----------------|-----------------|-----------------|
D|---7s12--11--11--|-9---9---7---7---|-----------------|--------9-7---7s-|
A|-5---------------|-----------------|-10--10--9---9---|-7---7h9---------|
E|-----------------|-----------------|-----------------|-----------------|
We joke and laugh at the present and past How some things do and some don't last
Like friends you make 'round here sometimes somehow just disappear

  D       D/C#      Bm      A         G       D/F#      Em7     A       
G|-----------------|-----------------|-----------------|-----------------|
D|s12--12--11--11--|-10--10--8---8---|-----------------|--------9-7---7--|
A|-----------------|-----------------|-10--10--9---9---|-7---7h9---------|
E|-----------------|-----------------|-----------------|-----------------|
Oh, it's funny to the two of us The folks back home make such a fuss
About the way we're livin' day to day And guitars pickin'

[Chorus]
  G                 A                 D       D/C#      Bm      A       
G|-----------------|-----------------|-----------------|-----------------|
D|-5-------5--5--5-|-7-------7-------|----7s12-11--11--|-9---9---7---7---|
A|-----5-------5---|-----7-------7---|-5-5--------12---|-----------------|
E|-----------------|-----------------|-----------------|-----------------|
The conversation covers everything and in between
From modern music to "Momma Tried" by Merle

  G       A         G       A       
G|-----------------|-----------------|
D|-5-------7--7----|-5-------7-----7-|
A|-----5-------7---|-----5-------7---|
E|-----------------|-----------------|
Oh, we ain't up to nothing
Just solving all the problems of the world

[Bridge]
  G       D/F#      Em7     D/A       G       D/F#      Em7     Asus4 A 
G|-----------------|-----------------|-----------------|-----------------|
D|-----------------|-----------------|-----------------|----------7---7--|
A|-10--10--9---9---|-7---7---5---7-9-|-10--10--9---9---|-7-7-9-10--------|
E|-----------------|-----------------|-----------------|-----------------|
As they come and go like us wanna-be’s on music row
We’re made to just burn out the way a star is made to glow

[Verse 3]

  guitar rest…                    A   G       D/F#      Em7     A       
G|-----------------|-----------------|-----------------|-----------------|
D|-12--12--11--11--|-9---9---7---7---|-----------------|--------9-7---7s-|
A|-----------------|-----------------|-10--10--9---9---|-7---7h9---------|
E|-----------------|-----------------|-----------------|-----------------|
We light us one last cigarette Make plans to do what we ain't done yet
He wants to buy a Jeep, I'd like to make it through next week

  D       D/C#      Bm      A         G       D/F#      Em7     A       
G|-----------------|-----------------|-----------------|-----------------|
D|s12--12--11--11--|-9---9---7---7---|-----------------|----------7---7--|
A|-----------------|-----------------|-10--10--9---9---|-7-7-9-10--------|
E|-----------------|-----------------|-----------------|-----------------|
If I do and he does too I bet we'll do it all again
Shoot the bull about what's new on another Sunday afternoon

[Chorus]
  G                 A                 D       D/C#      Bm      A       
G|-----------------|-----------------|-----------------|-----------------|
D|-5-------5--5--5-|-7-------7-------|----7s12-11--11--|-9---9---7---7---|
A|-----5-------5---|-----7-------7---|-5-5--------12---|-----------------|
E|-----------------|-----------------|-----------------|-----------------|
Where the conversation covers everything and in between
From life is good to giving it a whirl

  G       A         G       A       
G|-----------------|-----------------|
D|-5-------7--7----|-5-------7-----7-|
A|-----5-------7---|-----5-------7---|
E|-----------------|-----------------|
Oh, we ain't up to nothing
Just solving all the problems of the world

[Outro]
                                                                
  G       D/F#      Em7     D/A       G       D/F#      Em7     Asus4 A |
G|-----------------|-----------------|-----------------|-----------------|
D|-----------------|-----------------|-----------------|----------7---7--|
A|-10--10--9---9---|-7---7---5-5-7-9-|-10--10--9---9---|-7-7-9-10--------|
E|-----------------|-----------------|-----------------|-----------------|


************************************

| h  Hammer-on
  

************************************
Suggest correction
Creating personal tab
Creating personal tab
You can edit any tab online and save it as your Personal.

You can edit, replace or remove any tab part or add personal notes – all changes will be seen only by you.

Personal tabs can be accessed anytime from any device, even offline.
Learn more »
Give kudos to tab author, rate the tab!
1 2 3 4 5
comments
print report bad tab
guest
Wanna post a correction for this tab? Suggest correction