Oops, an error
Loading. Please wait.

A Toast tab

version 2
version 2

Whole song

86 views 1 this week
no commentswrite comment
1 2 3 4 5
3 more votes to show rating
add to favorites
×
Save as Personal and add changes to this tab that will be seen only by you. Learn more ›
×
You can save this tab as Personal to edit and correct it or add notes. All changes will be seen only by you. Learn more »
launch autoscroll
font size
0
reset
how to read this tab
guitar tuner
edit
Autoscroll
slow
fast
+/-
esc
set tempo
stop
Author
Difficulty
[Verse 1 ] 6/8 99 BPM

e|------------------|---------------------|------------------|-------------------------|
B|------------------|---------------------|------------------|-------------------------|
G|-----------------8|--------8-9---------6|-----------------8|--------8-9--------------|
D|---6---9-------9--|---------------------|---6---9-------9--|--------------7---7---7--|
A|-7---7-------9----|-----11---------7----|-7---7-------9----|-----11------------------|
E|---------0-7------|-0-9--------0-5---5--|---------0-7------|-0-9--------5---5---5---5|

e|------------------|---------------------|------------------|--------------------------|
B|------------------|---------------------|------------------|--------------------------|
G|-----------------8|--------8-9---------6|-----------------8|--------8-9---------------|
D|---6---9-------9--|---------------------|---6---9-------9--|--------------7---7---7---|
A|-7---7-------9----|-----11---------7----|-7---7-------9----|-----11-------------------|
E|---------0-7------|-0-9--------0-5---5--|---------0-7------|-0-9--------5---5---5---5\|

e|------------------|---------------------|------------------|-------------------------|
B|------------------|---------------------|------------------|-------------------------|
G|-----------------8|--------8-9---------6|-----------------8|--------8-9--------------|
D|---6---9-------9--|---------------------|---6---9-------9--|--------------7---7---7--|
A|-7---7-------9----|-----11---------7----|-7---7-------9----|-----11------------------|
E|---------0-7------|-0-9--------0-5---5--|---------0-7------|-0-9--------5---5---5---5|

e|------------------|---------------------|------------------|-------------------------|
B|------------------|---------------------|------------------|-------------------------|
G|-----------------8|--------8-9---------6|-----------------8|--------8-9--------------|
D|---6---9-------9--|---------------------|---6---9-------9--|--------------7---7---7--|
A|-7---7-------9----|-----11---------7----|-7---7-------9----|-----11------------------|
E|---------0-7------|-0-9--------0-5---5--|---------0-7------|-0-9--------5---5---5---5|


[Pre-Chorus]

e|-------------------------|--------------|
B|-------------------------|--------------|
G|-------------------------|--------------|
D|-----4------------4------|---2/6---4-2--|
A|-----------2------------2|-2-----2-----2|
E|-0-2---0-2----0-2---0-2--|--------------|


[Chorus]

e|------------|-----------------------|------------|---------------|
B|------------|-----------------------|------------|---------------|
G|------------|-----------------------|------------|---------------|
D|-2-2-2-4-4-4|7-7-7-7-9-9-9-9-9-9-9-9|-2-2-2-4-4-4|7-7-7-7-9-9-9-9|
A|-2-2-2-4-4-4|7-7-7-7-9-9-9-9-9-9-9-9|-2-2-2-4-4-4|7-7-7-7-9-9-9-9|
E|-0-0-0-2-2-2|5-5-5-5-7-7-7-7-7-7-7-7|-0-0-0-2-2-2|5-5-5-5-7-7-7-7|

e|------------------------|--------------------------------|------------------------|------------|-----------|
B|------------------------|--------------------------------|------------------------|------------|-----------|
G|------------------------|--------------------------------|-9-9-9-9-9-9------------|------------|-----------|
D|-2-2-2-2-2-2-4-4-4-4-4-4|-7-7-7-7-7-7-7-7-9-9-9-9-9-9-9-9|-9-9-9-9-9-9-9-9-9-9-9-9|------------|7-7-7-7-7-7|
A|-2-2-2-2-2-2-4-4-4-4-4-4|-7-7-7-7-7-7-7-7-9-9-9-9-9-9-9-9|-7-7-7-7-7-7-9-9-9-9-9-9|-9-9-9-9-9-9|7-7-7-7-7-7|
E|-0-0-0-0-0-0-2-2-2-2-2-2|-5-5-5-5-5-5-5-5-7-7-7-7-7-7-7-7|-------------7-7-7-7-7-7|-6-6-6-6-6-6|5-5-5-5-5-5|


[Post-Chorus]

e|------------------|--------------|
B|------------------|--------------|
G|-----------------8|--------8-9---|
D|---6---9-------9--|--------------|
A|-7---7-------9----|-----11-------|
E|---------0-7------|-0-9--------5\|


[Verse 2]

e|------------------|---------------------|------------------|-------------------------|
B|------------------|---------------------|------------------|-------------------------|
G|-----------------8|--------8-9---------6|-----------------8|--------8-9--------------|
D|---6---9-------9--|---------------------|---6---9-------9--|--------------7---7---7--|
A|-7---7-------9----|-----11---------7----|-7---7-------9----|-----11------------------|
E|---------0-7------|-0-9--------0-5---5--|---------0-7------|-0-9--------5---5---5---5|

e|------------------|---------------------|------------------|---------------------|
B|------------------|---------------------|------------------|---------------------|
G|-----------------8|--------8-9---------6|-----------------8|--------8-9----------|
D|---6---9-------9--|---------------------|---6---9-------9--|--------------------6|
A|-7---7-------9----|-----11---------7----|-7---7-------9----|-----11---------7----|
E|---------0-7------|-0-9--------0-5---5--|---------0-7------|-0-9--------0-5---5--|

[Pre-Chorus 2}
e|------------|------------|------------|------------|------------|------------|------------------|
B|------------|------------|------------|------------|------------|------------|------------------|
G|------------|------------|------------|------------|------------|-------4-2-1|-2-2-2-2-2-2-2-2-2|
D|---4---4----|---7---7---7|---6---6---6|---4---4---4|---4---4---4|---4--------|-2-2-2-2-2-2-2-2-2|
A|------------|------------|-7---7---7--|-2---2---2--|-5---5---5--|-5---5------|-0-0-0-0-0-0-0-0-0|
E|-2---2---2-4|-5---5---5--|------------|------------|------------|------------|------------------|

[Chorus)

e|------------|-----------------------|------------|---------------|
B|------------|-----------------------|------------|---------------|
G|------------|-----------------------|------------|---------------|
D|-2-2-2-4-4-4|7-7-7-7-9-9-9-9-9-9-9-9|-2-2-2-4-4-4|7-7-7-7-9-9-9-9|
A|-2-2-2-4-4-4|7-7-7-7-9-9-9-9-9-9-9-9|-2-2-2-4-4-4|7-7-7-7-9-9-9-9|
E|-0-0-0-2-2-2|5-5-5-5-7-7-7-7-7-7-7-7|-0-0-0-2-2-2|5-5-5-5-7-7-7-7|

e|------------------------|--------------------------------|------------------------|------------|-----------|
B|------------------------|--------------------------------|------------------------|------------|-----------|
G|------------------------|--------------------------------|-9-9-9-9-9-9------------|------------|-----------|
D|-2-2-2-2-2-2-4-4-4-4-4-4|-7-7-7-7-7-7-7-7-9-9-9-9-9-9-9-9|-9-9-9-9-9-9-9-9-9-9-9-9|------------|7-7-7-7-7-7|
A|-2-2-2-2-2-2-4-4-4-4-4-4|-7-7-7-7-7-7-7-7-9-9-9-9-9-9-9-9|-7-7-7-7-7-7-9-9-9-9-9-9|-9-9-9-9-9-9|7-7-7-7-7-7|
E|-0-0-0-0-0-0-2-2-2-2-2-2|-5-5-5-5-5-5-5-5-7-7-7-7-7-7-7-7|-------------7-7-7-7-7-7|-6-6-6-6-6-6|5-5-5-5-5-5|

e|------------|--------------|------------|---------|------------|--------------|------------|--------|
B|------------|--------------|------------|---------|------------|--------------|------------|--------|
G|-------4-4-4|--------------|------------|---------|-------4-4-4|--------------|------------|--------|
D|-2-2-2-4-4-4|-6-6-6-7-7-7-7|-2-2-2-4-4-4|-6-6-6-+5|-2-2-2-4-4-4|-6-6-6-7-7-7-7|-2-2-2-4-4-4|-6-6-6-6|
A|-2-2-2-2-2-2|-6-6-6-7-7-7-7|-2-2-2-2-2-2|-6-6-6-+5|-2-2-2-2-2-2|-6-6-6-7-7-7-7|-2-2-2-2-2-2|-6-6-6-6|
E|-0-0-0------|-4-4-4-5-5-5-5|-0-0-0------|-4-4-4---|-0-0-0------|-4-4-4-5-5-5-5|-0-0-0------|-4-4-4-4|

e|------------|--------------|------------|---------|
B|------------|--------------|------------|---------|
G|-------4-4-4|--------------|------------|---------|
D|-2-2-2-4-4-4|-6-6-6-7-7-7-7|-2-2-2-4-4-4|-6-6-6-+5|
A|-2-2-2-2-2-2|-6-6-6-7-7-7-7|-2-2-2-2-2-2|-6-6-6-+5|
E|-0-0-0------|-4-4-4-5-5-5-5|-0-0-0------|-4-4-4---|

[Guitar Solo]


Guitar 1 (Center)

e|-12-11---------|------------------------|------------------------------|-12-0-11-0-9-0-+12|12----16-14-12--|
B|-------14-12---|-------12---------------|------------------------------|---------------+12|---12---------12|
G|-------------13|-11-13----13-11-14-13-11|----------13-------11---------|---------------+12|----------------|
D|---------------|------------------------|-14-11-14----14-11----14-11-14|---------------+12|----------------|
A|---------------|------------------------|------------------------------|---------------+12|----------------|
E|---------------|------------------------|------------------------------|---------------+12|----------------|


e|---------|----------------------|---------------------------------|
B|----12-14|----------------------|---------------------------------|
G|-11------|----13-------13----11~|-------------13-14-16b18b16b18b16|
D|---------|-14----14-14----14----|-------14-16---------------------|
A|---------|----------------------|-14-16---------------------------|
E|---------|----------------------|---------------------------------|


Guitar 2 (Left)

e|------------|----------------|----------------------|----------|------------|---------------|--------------|
B|------------|----------------|----------------------|----------|------------|---------------|--------------|
G|-----8-9----|----------------|----------------------|--------+7|-----8-9----|-9-9---10b11---|--------------|
D|-9-------9-6|-------9-11-9---|-------9-11-9---------|--------+7|-9-------9-6|-----9-------12|--------------|
A|---7--------|--------------12|-11-----------12-11---|-9b10-7-+7|---7--------|---------------|11-12-11--11-9|
E|------------|-0-0-7----------|----12--------------12|----------|------------|---------------|--------12----|

e|---------------------------|
B|----------------9b10b9b10b8|
G|-----------9h11------------|
D|------9h11-----------------|
A|-9h11----------------------|
E|---------------------------|


Guitar 3 (Right) pitched down an octave

e|-------------|-------------|--------------------|---------|-------------|-------------|------------------|
B|-------------|-------------|--------------------|---------|-------------|-------------|------------------|
G|-------------|-------------|--------------------|-------+7|-------------|-------------|------------------|
D|-------------|---6----6b7b6|----------9-7-------|---6---+7|-------------|---6----6b7b6|------------------|
A|----------9-7|-------------|--------------11-9-7|-------+7|----------9-7|-------------|------------------|
E|-0-12-0-7----|-4---4-5-----|-0-12-0-7-----------|-4---4---|-0-12-0-7----|-4---4-5-----|0-4-0-0-4-0-2-4-2-0|

e|----------------|--|
B|----------------|--|
G|----------------|--|
D|----------------|--|
A|----------------|--|
E|-4-4-4-4-4/5-5-5|-0|

[Instrumental Part (2:08-2:15)]


Guitar 1 (Left)

e|-12-----------12-----------|-12-----------12-----------|-12-----------12-----------|--|
B|---12-10/12\9----12-10/12\9|---12-10/12\9----12-10/12\9|---12-10/12\9----12-10/12\9|--|
G|---------------------------|---------------------------|---------v-----------------|-9|
D|---------------------------|---------------------------|---------------------------|--|
A|---------------------------|---------------------------|---------------------------|--|
E|---------------------------|---------------------------|---------------------------|--|

Guitar 2 (Right)

e|---12-14-16-t19-12-14-12-14-16-t19|-12-14-12-14-16-t19-12-14-12-14-16-t19|
B|----------------------------------|--------------------------------------|
G|----------------------------------|--------------------------------------|
D|----------------------------------|--------------------------------------|
A|----------------------------------|--------------------------------------|
E|-0--------------------------------|--------------------------------------|

e|-12-14-12-14-16-t19-12-14-12-14-16-t19|-12|
B|--------------------------------------|---|
G|--------------------------------------|---|
D|--------------------------------------|---|
A|--------------------------------------|---|
E|--------------------------------------|---|


[Bridge]

e|--|-2|-----|-0|--|--|-----|-0|
B|-5|-4|-5--7|-2|-5|-4|-5--7|-2|
G|-6|-4|-6--6|-2|-6|-4|-6--6|-2|
D|-6|-4|-6--6|-2|-6|-4|-6--6|-2|
A|-4|--|-4--4|-0|-4|-2|-4--4|-0|
E|--|--|-----|--|--|--|-----|--|

[Chorus]
e|--|------|--|----|--------------|----------|------------|------------|
B|--|------|--|----|--------------|----------|------------|------------|
G|-1|-4-4-4|-1|----|--------------|-4-4-4-4-4|------------|------------|
D|-2|-4-4-4|-2|-7-9|-2-2-2-2-2-2-2|-4-4-4-4-4|-6-6-6-6-6-6|-7-7-7-7-7-7|
A|-2|-2-2-2|-2|-7-9|-2-2-2-2-2-2-2|-2-2-2-2-2|-6-6-6-6-6-6|-7-7-7-7-7-7|
E|-0|------|-0|-5-7|-0-0-0-0-0-0-0|----------|-4-4-4-4-4-4|-5-5-5-5-5-5|


e|------------|-------------------|------------|---------------|
B|------------|-------------------|------------|---------------|
G|------------|-------------------|------------|---------------|
D|-2-2-2-4-4-4|7-7-7-7-9-9-9-9-9-9|-2-2-2-4-4-4|7-7-7-7-9-9-9-9|
A|-2-2-2-4-4-4|7-7-7-7-9-9-9-9-9-9|-2-2-2-4-4-4|7-7-7-7-9-9-9-9|
E|-0-0-0-2-2-2|5-5-5-5-7-7-7-7-7-7|-0-0-0-2-2-2|5-5-5-5-7-7-7-7|

e|------------------------|--------------------------------|------------------------|------------|-----------|
B|------------------------|--------------------------------|------------------------|------------|-----------|
G|------------------------|--------------------------------|-9-9-9-9-9-9------------|------------|-----------|
D|-2-2-2-2-2-2-4-4-4-4-4-4|-7-7-7-7-7-7-7-7-9-9-9-9-9-9-9-9|-9-9-9-9-9-9-9-9-9-9-9-9|------------|7-7-7-7-7-7|
A|-2-2-2-2-2-2-4-4-4-4-4-4|-7-7-7-7-7-7-7-7-9-9-9-9-9-9-9-9|-7-7-7-7-7-7-9-9-9-9-9-9|-9-9-9-9-9-9|7-7-7-7-7-7|
E|-0-0-0-0-0-0-2-2-2-2-2-2|-5-5-5-5-5-5-5-5-7-7-7-7-7-7-7-7|-------------7-7-7-7-7-7|-6-6-6-6-6-6|5-5-5-5-5-5|

e|------------|-----------|-12\|
B|------------|-----------|--9\|
G|------------|-----------|----|
D|------------|7-7-7-7-7-7|----|
A|-9-9-9-9-9-9|7-7-7-7-7-7|----|
E|-6-6-6-6-6-6|5-5-5-5-5-5|----|




************************************

| x   Dead note
| g   Grace note
| (n) Ghost note
| h   Hammer-on
| p   Pull-off
| r   Release
| >   Accented note
| t   Tapping
| b   Bend
| br  Bend release
| pb  Pre-bend
| pbr Pre-bend release
| /   Slide up
| \   Slide down
| ~   Vibrato
| s   Slap
| P   Pop
| PM  Palm mute
| TR  Trill
| N   Tremolo

************************************

            
            
Suggest correction
Creating personal tab
Creating personal tab
You can edit any tab online and save it as your Personal.

You can edit, replace or remove any tab part or add personal notes – all changes will be seen only by you.

Personal tabs can be accessed anytime from any device, even offline.
Learn more »
Give kudos to tab author, rate the tab!
1 2 3 4 5
comments
print report bad tab
guest
You may want to rate the tab now too:
select rating
Wanna post a correction for this tab? Suggest correction