Oops, an error
Loading. Please wait.

Burning Spirit chords

103 views 1 this week
no commentswrite comment
1 2 3 4 5
3 more votes to show rating
add to favorites
×
Save as Personal and add changes to this tab that will be seen only by you. Learn more ›
×
You can save this tab as Personal to edit and correct it or add notes. All changes will be seen only by you. Learn more »
launch autoscroll
font size
0
reset
transpose
0
reset
display chords
guitar tuner
edit
Autoscroll
slow
fast
+/-
esc
set tempo
stop
Author
Difficulty
Strumming
There is no strumming pattern for this song yet. and get +5 IQ
If you're playing this by yourself and want to emulate what the base line does at the end of both lines of the
choruss, try alternating between E and Esus4 (just add pinky to 2nd fret of G string for that) . The asterisks
or stars represent just slapping the strings once with your strumming hand. 


[Intro]

(whistle riff)


e|---------7--7-----------9--7-------|------7--7-----------------------|
B|------9--------9--7--5--------10---|--9--------9--7--5--7/9--7-------|
G|-----------------------------------|---------------------------------|
D|-----------------------------------|---------------------------------|
A|-----------------------------------|---------------------------------|
E|-----------------------------------|---------------------------------|


e|---------7--7-----------9--7-------|---------------------------------|
B|------9--------9--7--5--------10---|---9--9--9--7--7--5--5-----------|
G|-----------------------------------|---------------------------------|
D|-----------------------------------|---------------------------------|
A|-----------------------------------|---------------------------------|
E|-----------------------------------|---------------------------------|


[Verse 1]

E                  A       B
I'm walking with a burning spirit
E                A        B
But I don't know where it leads
E           A       B
If I ever I lose direction
C#m                   B       E
I know that's where I have to be

E                   A       B


[Verse 2]

E                  A      B
I'm sitting in the meadow asking
E                    A           B
How to bend when the strong wind blows
E          A     B
I'm trying to remember
C#m            B     A
What my soul already knows
C#m            B     E
What my soul already knows


[Chorus]
                                 
F#              B                 E         
I am looking to find, no place at all 


Chorus riff

 e|---0--*--0--0--0----|---0--*--0--0--0---------|        
 B|---0--*--0--0--0----|---0--*--0--0--0---------|
 G|---1--*--1--2--1----|---1--*--1--2--1---------|                                             
 D|---2--*--2--2--2----|---2--*--2--2--2---------|
 A|---2--*--2--2--2----|---2--*--2--2--2---------|
 E|---0--*--0--0--0----|---0--*--0--0--0---------|

F#           B                  E           
My wandering mind, knows who to call 


[Chorus riff]  
     
                                            
[Intro riff]


[Verse 3]

E                  A       B
I'm walking with a burning spirit
E                A        B
But I don't know where it leads
E           A       B
If I ever I lose direction
C#m                   B       E
I know that's where I have to be

E                    A       B


[Verse 4]

E                 A         B
When I get to the place I'm going
E             A      B
Surely I will disappear
E            A       B
Into forests with no shadows
C#m           B        A
The curiosity keeps me here
C#m           B        E
The curiosity keeps me here


[Chorus]

F#              B                 E         
I am looking to find, no place at all

[Chorus riff]
                                                          
F#           B                  E           
My wandering mind, knows who to call 

[Chorus riff]       


[Verse 5]

E                  A       B
I'm walking with a burning spirit
E                A        B
But I don't know where it leads
E           A       B
If I ever I lose direction
C#m                   B       A
I know that's where I have to be
C#m                   B       E
I know that's where I have to be

E
[Intro riff]



************************************

| /  Slide up

************************************

            
            
Suggest correction
Creating personal tab
Creating personal tab
You can edit any tab online and save it as your Personal.

You can edit, replace or remove any tab part or add personal notes – all changes will be seen only by you.

Personal tabs can be accessed anytime from any device, even offline.
Learn more »
Give kudos to tab author, rate the tab!
1 2 3 4 5
comments
print report bad tab
guest
You may want to rate the tab now too:
select rating
Wanna post a correction for this tab? Suggest correction