Oops, an error
Loading. Please wait.

Desert Sunrise tab

version 1
version 1

Whole song

4,415 views 1 this week
1 commentread comment
1 2 3 4 5
3 more votes to show rating
add to favorites
×
Save as Personal and add changes to this tab that will be seen only by you. Learn more ›
×
You can save this tab as Personal to edit and correct it or add notes. All changes will be seen only by you. Learn more »
launch autoscroll
font size
0
reset
how to read this tab
guitar tuner
edit
Autoscroll
slow
fast
+/-
esc
set tempo
stop
Author
introduction / verses
note: some of the verses play more rounded chords which require added notes

E|------7~----------------------------------------------------------------|
B|-8~--------5~-7~--------------------------------------------------------|
G|------7~----------------------------------------------------------------|
D|-10~-------5~-7~--------------------------------------------------------|
A|-7~---10~--7~-5~--------------------------------------------------------|
E|------------------------------------------------------------------------|

 chorus: fingerpicked (G on the high e repeated constantly)

E|-3-3-3-3------------------------------------------------------------|
B|-1-1-1-1------------------------------------------------------------|
G|-0-0-2-0------------------------------------------------------------|
D|-2-0-2-0------------------------------------------------------------|
A|-3-2-0-2------------------------------------------------------------|
E|--------------------------------------------------------------------|

            
            
Suggest correction
Creating personal tab
Creating personal tab
You can edit any tab online and save it as your Personal.

You can edit, replace or remove any tab part or add personal notes – all changes will be seen only by you.

Personal tabs can be accessed anytime from any device, even offline.
Learn more »
Give kudos to tab author, rate the tab!
1 2 3 4 5
comments
print report bad tab
1 comment total.
+1 reply
J311mann 10 Apr 18, 2008 11:46 AM

hey this is just a comment/correction. i like the verse chords that u used but for the chorus i was just messing around and i wanted you to check this out.

This is my first time doing this so i hope it comes out ok. but i will describe string/fret positions beneath it.

E|------------------------------------------------------------------------|
B|------------8----------------8-------------------3---------------3------|
G|------------7----------------7-------------------5---------------5------|
D|---------0-----0----------5-----5-------------5-----5---------5-----5---|
A|------------------------------------------------------------------------|
E|------8----------------7-------------------5---------------7------------|


So i think this sounds nice, if the tab didn't come out right, the notes for the C chord (E-8, A-0, D-O, G-7, B-8, e-0) (Those are fret positions per string). The B chord (E-7, A-0, D-5, G-7, B-8, e-0),
The A chord (E-5, A-0, D-5, G-5, B-3, e-0)..
The picking is the same for each chord (You can improvise if you want) but i think it sounds nice as (E...D...G+B...D)

I hope your able to figure it out if something gets messed up when i submit this. its pretty self-explanatory.

So there you go. i hope you like this, you can use it if you want but just give a little credit to me :). my names Jay and this is a great song.

guest
You may want to rate the tab now too:
select rating
Wanna post a correction for this tab? Suggest correction