Oops, an error
Loading. Please wait.

Desert Sunrise tab

version 2
version 2

Whole song

15,022 views 6 this week
2 commentsread comments
1 2 3 4 5
x 5
add to favorites
×
Save as Personal and add changes to this tab that will be seen only by you. Learn more ›
×
You can save this tab as Personal to edit and correct it or add notes. All changes will be seen only by you. Learn more »
launch autoscroll
font size
0
reset
how to read this tab
guitar tuner
edit
Autoscroll
slow
fast
+/-
esc
set tempo
stop
Author
Difficulty
Brett Dennen - Desert Sunrise
tabbed by Eric Frenkil
frenkile@stu.beloit.edu
E|-3-------7-------0-------2-------|
B|-1------(x)-----(3)-----(3)------|
G|(0)------7-------0-------2-------|
D|-2-------5-------2-------0-------|
A|---------------------------------|
E|---------------------------------|
			(inrto: play chords twice: ~ ~ ~ ~, ~ ~ ~ ~)
a desert ~sunrise, you warm my ~soul
painting ~me in shades of clay, ~covering me whole

and I'm a ~lizard, sun bathing ~in
your radi~ence, oh I ~call you out of hiding

so ~sweet, so sweet you ~are
if only I could ~only have a taste, wrap my ~lips around your flavor

just be~cause you are you, just because you ~are
so beauti~ful   ~

   C/G	 B/G   Am7   B/G
E|---3x----3x----3x-----3x--|
B|---3x----3x----1x-----3x--|
G|---0x----0x----2x-----0x--|
D|----x-----x----2x------x--|
A|-3--x--2--x--0--x--0h2-x--|
E|--------------------------|
	      C/G	      B/G	   Am7	     B/G
and I've been waiting all this life in the company of one	(C)
and I know I am young but I don't want to be alone		(H)
if you could only    just consider the two of us		(O)
	   C/G		   B/G	 	 Am7	B/G		(R)
and I know darling I could be so good to you			(U)
C/G	  B/G	  Am7	  B/G					(S)
C/G	  B/G    *Am..........

 C/G	   C/G	  B/G	     B/G
 I see you risin' upon the horizon				(R)
  	   Am7		  Am7	      Am7	       Am7	(E)
  bringin' light into the day and I'm coastin' on your rays	(F)
 when I awoke you spoke through the mist of a misty bliss	(R)
  casting shadows	(on all my dismal yesterdays)		(A)
 do you remember that you told me, darlin'			(I)
  that I was so real, I tell you all my tears for you are real	(N)
 And we'll cross that bridge again someday			
  I know we will, I hope we will				

E|-3-------7-------0-------2-------|
B|-1------(x)-----(3)-----(3)------|
G|(0)------7-------0-------2-------|
D|-2-------5-------2-------0-------|
A|---------------------------------|
E|---------------------------------|

desert ~sunset, a lulla~bye
if I could ~give it all to you, if you'd ~only let me try
you sing so ~sweetly its my only ~wish
music ~drips from your lips like sweet ~sips of a summer's kiss
(summer raindrops) so ~precious, toungues ~ twist ~  ~

CHORUS & REFRAIN

desert ~moonrise, into the ~night
before we ~lay our heads i wish, to walk under the ~splendorous starlight
sing so ~sweetly, it’s the sweetest ~sound
and I’ve become ~ weak in the knees, and I drop ~down and kiss the ground
and all my ~cares, lie far be~low
in this ~earth I wish to die, in this ~hearth my fire grows
				(repeat chords twice: ~ ~ ~ ~, ~ ~ ~ ~)

            
            
Suggest correction
Creating personal tab
Creating personal tab
You can edit any tab online and save it as your Personal.

You can edit, replace or remove any tab part or add personal notes – all changes will be seen only by you.

Personal tabs can be accessed anytime from any device, even offline.
Learn more »
comments
print report bad tab
2 comments total.
0 reply
J311mann 10 Apr 18, 2008 11:49 AM

hey this is just a comment/correction. for the chorus i was just messing around and i wanted you to check this out.


E|------------------------------------------------------------------------|
B|------------8----------------8-------------------3---------------3------|
G|------------7----------------7-------------------5---------------5------|
D|---------0-----0----------5-----5-------------5-----5---------5-----5---|
A|------------------------------------------------------------------------|
E|------8----------------7-------------------5---------------7------------|



So there you go. i hope you like this, you can use it if you want but just give a little credit to me :). my names Jay and this is a great song.

0 reply
jacksonhorton 10 Sep 01, 2009 07:30 AM

very good tab and thank you for it, but the refrain isnt right. if you listen to it closely its higher than the chorus, especially the first note he picks, other than that great job!

guest
You may want to rate the tab now too:
select rating
Wanna post a correction for this tab? Suggest correction