Oops, an error
Loading. Please wait.

Taken tab

16 views 1 this week
no commentswrite comment
1 2 3 4 5
3 more votes to show rating
add to favorites
×
Save as Personal and add changes to this tab that will be seen only by you. Learn more ›
×
You can save this tab as Personal to edit and correct it or add notes. All changes will be seen only by you. Learn more »
launch autoscroll
font size
0
reset
how to read this tab
guitar tuner
edit
Autoscroll
slow
fast
+/-
esc
set tempo
stop
Taken
Brian Bartholow

Tuning: Eb Ab C# Gb Bb Eb
Words and Music by Brian Bartholow


[MAIN RIFF]

e |0-0-0-0-0-|0-0-0-0-0-|0-0-0-0-0-|0-0-0-0-0-|
B |0-0-0-0-0-|0-0-0-0-0-|0-0-0-0-0-|0-0-0-0-0-|
G |9-9-9-9-9-|8-8-8-8-8-|6-6-6-6-6-|2-2-2-2-2-|
D |9-9-9-9-9-|9-9-9-9-9-|6-6-6-6-6-|2-2-2-2-2-|
A |7-7-7-7-7-|7-7-7-7-7-|4-4-4-4-4-|0-0-0-0-0-|
E |----------|----------|----------|----------|


[Pre-Chorus]

e |2-2-2-2-2-|0-0-0-0-0-|2-2-2-2-2-|0-0-0-0-0--|
B |2-2-2-2-2-|2-2-2-2-2-|2-2-2-2-2-|2-2-0-0-0--|
G |3-3-3-3-3-|2-2-2-2-2-|3-3-3-3-3-|2-2-4-4-4--|
D |4-4-4-4-4-|2-2-2-2-2-|4-4-4-4-4-|2-2-4-4-4--|
A |4-4-4-4-4-|0-0-0-0-0-|4-4-4-4-4-|0-0-2-2-2--|
E |2-2-2-2-2-|----------|2-2-2-2-2-|-----------|


[MAIN RIFF] 

Photographs, Pictures of
A little angel full of life and love
Where did you go?
What happened to you?
This is something we all wish we knew


[Pre-Chorus]

Wanna hear you
Wanna see you smile again


[MAIN RIFF] 

Dream on, little girl
You were taken out of this world
Sleep on, sleep tight
You will be with our Father tonight
Little Girl


[MAIN RIFF] 

Who knew life could be this cruel
What kind of monster would do this to you
But we'll stand tall, won't give up the fight
Raising our candles up to heaven tonight


[Pre-Chorus]

We won't forget you
Never forget you


[MAIN RIFF] 

Dream on, little girl
You were taken out of this world
Sleep on, sleep tight
You will be with our Father tonight
Little Girl

            
            
Suggest correction
Creating personal tab
Creating personal tab
You can edit any tab online and save it as your Personal.

You can edit, replace or remove any tab part or add personal notes – all changes will be seen only by you.

Personal tabs can be accessed anytime from any device, even offline.
Learn more »
Give kudos to tab author, rate the tab!
1 2 3 4 5
comments
print report bad tab
guest
You may want to rate the tab now too:
select rating
Wanna post a correction for this tab? Suggest correction