Oops, an error
Loading. Please wait.

Unrequited chords

7 views 1 this week
no commentswrite comment
1 2 3 4 5
3 more votes to show rating
add to favorites
×
Save as Personal and add changes to this tab that will be seen only by you. Learn more ›
×
You can save this tab as Personal to edit and correct it or add notes. All changes will be seen only by you. Learn more »
launch autoscroll
font size
0
reset
transpose
0
reset
simplify chords
display chords
guitar tuner
edit
Autoscroll
slow
fast
+/-
esc
set tempo
stop
Strumming
There is no strumming pattern for this song yet. and get +5 IQ
Unrequited
Brian Bartholow

Words and Music by Brian Bartholow

Tuning: Eb Ab C# Gb Bb Eb


CHORD CHART: 

     Am        D        G        C       Em7       F     
Eb  -----    --x--    --x--    -----    -----    --1--
Ab  --1--    --3--    --0--    --1--    --3--    --1--
C#  --2--    --2--    --0--    --0--    --0--    --2--
Gb  --2--    --0--    --0--    --2--    --2--    --3--
Bb  --0--    -----    -----    --3--    --2--    --3--
Eb  -----    -----    -----    -----    -----    --1--


[VERSES]
eb |---------------|------------0--|---------------|------------0--|
Bb |-1-0-1-3--3--3-|-1-0-1-3--3--3-|-1-0-1-3--3--3-|-1-0-1-3--3--3-|
Gb |-2-0-2-2---2--2|-2-0-2-2---2--2|-2-0-2-2---2--2|-2-0-2-2---2--2|
C# |-2-0-2-0-0--0--|-2-0-2-0-0-----|-2-0-2-0-0--0--|-2-0-2-0-0-----|
Ab |-0-0-0---------|-0-0-0---------|-0-0-0---------|-0-0-0---------|
Eb |---------------|---------------|---------------|---------------| 


[CHORUS]
eb |-------x-x--|-1-1--1-1--3|-------x-x--|-1-1--1-1--3|-------3-3--|-1-1--1-1---|-------x-x--|-1-1--1-1--|
Bb |--1-1--3-3--|-1-1--1-1--3|--1-1--3-3--|-1-1--1-1--3|--1-1--3-3--|-1-1--1-1---|--1-1--3-3--|-1-1--1-1--|
Gb |------------|-2-2--2-2--4|------------|-2-2--2-2--4|------------|-2-2--2-2---|------------|-2-2--2-2--|
C# |--2-2--2-2--|-3-3--3-3--5|--2-2--2-2--|-3-3--3-3--5|--2-2-------|-3-3--3-3---|--2-2--2-2--|-3-3--3-3--|
Ab |--3-3--2-2--|-3-3--3-3--5|--3-3--2-2--|-3-3--3-3--5|--2-2--2-2--|-3-3--3-3---|--3-3--2-2--|-3-3--3-3--|
Eb |------------|-1-1--1-1--3|------------|-1-1--1-1--3|-------3-3--|-1-1--1-1---|------------|-1-1--1-1--|



[VERSE ONE] 

Am G Am D
         You got me all tongue tied
Am G Am D
         Tripped up and turned around
Am G Am D
         That's how I feel when you're near me
Am G Am D
         Like I just left the ground
Am G Am D
         And I can feel you staring through me
Am G Am D
         Burning holes with your eyes
Am G Am D
         Oh what I'd give to take a minute
Am G Am D
         And fall for all your lies


[CHORUS]

C         G
Can't you see
    F
The damage that your doing to me
C          G
With every day
  F
I die a little more inside
C     G                   F
And I know that you don't feel it
C     G                   F
And I know that you don't feel it



[VERSE TWO] 

Am G Am D
         I wanna walk though your garden
Am G Am D
         And knock upon your door
Am G Am D
         I wanna whisper in your ear baby
Am G Am D
         Guess that's what dreams are for
Am G Am D
         I wanna touch your lips
Am G Am D
         I wanna drive you wild
Am G Am D
         I wanna pull you in closer
Am G Am D
         Get lost in your eyes


[CHORUS]

C         G
Can't you see
    F
The damage that your doing to me
C          G
With every day
  F
I die a little more inside
C     G                   F
And I know that you don't feel it
C     G                   F
And I know that you don't feel it
Suggest correction
Creating personal tab
Creating personal tab
You can edit any tab online and save it as your Personal.

You can edit, replace or remove any tab part or add personal notes – all changes will be seen only by you.

Personal tabs can be accessed anytime from any device, even offline.
Learn more »
Give kudos to tab author, rate the tab!
1 2 3 4 5
comments
print report bad tab
guest
You may want to rate the tab now too:
select rating
Wanna post a correction for this tab? Suggest correction