Oops, an error
Loading. Please wait.

Weaving Hearts tab

16 views 1 this week
no commentswrite comment
1 2 3 4 5
3 more votes to show rating
add to favorites
×
Save as Personal and add changes to this tab that will be seen only by you. Learn more ›
×
You can save this tab as Personal to edit and correct it or add notes. All changes will be seen only by you. Learn more »
launch autoscroll
font size
0
reset
how to read this tab
guitar tuner
edit
Autoscroll
slow
fast
+/-
esc
set tempo
stop
Weaving Hearts
Brian Bartholow

Music: Brian Bartholow
Lyrics: Brian Bartholow and Jay Skipworth

CHORD CHART (Capo 9th Fret): 

    Eadd9      E       Em        C        D        G      
Eb  --x--    --0--    --0--    --0--    --2--    --3--
Ab  --0--    --0--    --0--    --1--    --3--    --3--
C#  --1--    --1--    --0--    --0--    --2--    --0--
Gb  --4--    --2--    --2--    --2--    --0--    --0--
Bb  --2--    --0--    --2--    --3--    --0--    --2--
Eb  --0--    --0--    --0--    --0--    --x--    --3--
     CE       CF


[Verses]

eb |x-----x-----|x-----x-----|x-----x-----|x-----x-----|
Bb |9-----9-----|9-----9-----|9-----9-----|9-----9-----|
Gb |10----10----|10----10----|10----10----|10----10----|
C# |13----13----|13----13----|11----11----|11----11----| x6
Ab |11-11-11-11-|11-11-11-11-|9--9--9--9--|9--9--9--9--|
Eb |9-----x-----|x-----x-----|9-----x-----|x-----x-----|


[Chorus]

eb |9-----9-----|9-----9-----|9-----9-----|9-----9-----|
Bb |10----10----|10----10----|9-----9-----|9-----9-----|
Gb |9-----9-----|9-----9-----|9-----9-----|10----10----|
C# |11----11----|10----10----|11----11----|11----11----|
Ab |12----12----|12----12----|11----11----|9-----9-----|
Eb |9-----9-----|9-----9-----|9-----9-----|x-----x-----|

eb |9-----9-----|9-----9-----|12----12----|11----11----|
Bb |10----10----|10----10----|12----12----|12----12----|
Gb |9-----9-----|9-----9-----|9-----9-----|11----11----|
C# |11----11----|10----10----|9-----9-----|9-----9-----|
Ab |12----12----|12----12----|11----11----|9-----9-----|
Eb |9-----9-----|9-----9-----|12----12----|x-----x-----|

eb |9-----9-----|9-----9-----|9-----------|11----------|
Bb |10----10----|10----10----|9-----------|12----------|
Gb |9-----9-----|9-----9-----|9-----------|11----------|
C# |11----11----|10----10----|11----------|9-----------|
Ab |12----12----|12----12----|11----------|9-----------|
Eb |9-----9-----|9-----9-----|9-----------|x-----------|


[Solo]

eb |x-----x-----|x-----x-----|x-----x-----|x-----x-----|
Bb |9-----9-----|9-----9-----|9-----9-----|9-----9-----|
Gb |10----10----|10----10----|10----10----|10----10----|
C# |13----13----|13----13----|11----11----|11----11----|x4
Ab |11-11-11-11-|11-11-11-11-|9--9--9--9--|9--9--9--9--|
Eb |9-----x-----|x-----x-----|9-----x-----|x-----x-----|


[Verse 3]

eb |x-----x-----|x-----x-----|x-----x-----|x-----x-----|
Bb |9-----9-----|9-----9-----|9-----9-----|9-----9-----|
Gb |10----10----|10----10----|10----10----|10----10----|
C# |13----13----|13----13----|11----11----|11----11----|x3
Ab |11-11-11-11-|11-11-11-11-|9--9--9--9--|9--9--9--9--|
Eb |9-----x-----|x-----x-----|9-----x-----|x-----x-----|

                                           let ring-----------| 
eb |x-----x-----|x-----x-----|x-----x-----|x-----------|
Bb |9-----9-----|9-----9-----|9-----9-----|9-----------|
Gb |10----10----|10----10----|10----10----|10----------|
C# |13----13----|13----13----|11----11----|11----------|
Ab |11-11-11-11-|11-11-11-11-|9--9--9--9--|9-----------|
Eb |9-----x-----|x-----x-----|9-----x-----|x-----------|

                                           

[Verse 1]

Eadd9            E
I was listing to starboard, Amy
Eadd9            E
When you walked away
Eadd9            E
Time ticking on clock of angry
Eadd9            E
Nothing more I could say


[Chorus] 

C             Em
As if it were words
C                     G  D
That you were waiting for
C                      Em
As if I knew the right ones
               D
I'm not really sure 


[Verse 2] 

Eadd9               E
Compass pointed me downtown, Amy
Eadd9         E
Opposite your weaving heart
Eadd9                     E
And I found solace in the arms of empty
Eadd9            E
Broken promises, broken heart


[Chorus]

C             Em
As if it were words
C                     G  D
That you were waiting for
C                      Em
As if I knew the right ones
               D
I'm not really sure 


[Solo]


[Verse 3]

Eadd9                    E
Sunsets came and went on our lives, Amy
Eadd9              E
And I finally came around
Eadd9                         E
But you had turned your eyes away from my hands
Eadd9                    E
And woke up with someone else



************************************

| x  Dead note

************************************

            
            
Suggest correction
Creating personal tab
Creating personal tab
You can edit any tab online and save it as your Personal.

You can edit, replace or remove any tab part or add personal notes – all changes will be seen only by you.

Personal tabs can be accessed anytime from any device, even offline.
Learn more »
Give kudos to tab author, rate the tab!
1 2 3 4 5
comments
print report bad tab
guest
You may want to rate the tab now too:
select rating
Wanna post a correction for this tab? Suggest correction