Oops, an error
Loading. Please wait.

A Ragtime Heart For The Prevailing Boy Chords

4 views 1 this week
no commentswrite comment
1 2 3 4 5
3 more votes to show rating
add to favorites
launch autoscroll
font size
0
reset
transpose
0
reset
simplify chords
display chords
guitar tuner
Autoscroll
slow
fast
+/-
esc
set tempo
stop
Help us to improve Ultimate-Guitar.com Take our survey!
×
Author
Difficulty
novice
-------------------------------------------------------------------------------
               A Ragtime Heart for the Prevailing Boy - Brian Bonz
-------------------------------------------------------------------------------
Tabbed by: rmolinand10
E-mail: rich.molina@pullingthreads.io
Twitter: @rmolinand10


Tuning: Standard with Capo on 2nd fret. All notes are relative to capo.

Chord shapes:

       Verse                         Bridge                        Outro
     B7   B7/C  D            C      D     Em     F#m                 C
e|---0-----0----0------------x------x------x------x------------------x---------------|
B|---0-----0----0------------5------7------8------10-----------------0---------------|
G|---2-----2----4------------0------0------0------0------------------2---------------|
D|---1-----1----0------------0------0------0------0------------------0---------------|
A|---2-----3----5------------3------5------7------9------------------3---------------|
E|---x-----x----x------------x------x------x------x------------------x---------------|

[Intro Riff:] this riff is repeated at the beginning of each line in the Verse.

e|-----------| 
B|-----------| 
G|-----------| 
D|-----------| 
A|-------0-2-| 
E|-0-2-3-----| 


-------

[Verse]
B7                        B7/C               D
He was a bully before his mom picked out his name (the doctors knew her song)
B7                          B7/C                   D                
We'll suck these Midwestern animals dry to the bone (and they sleep all alone)
B7                          B7/C                          D                
And Cash Carter was a man, a success. You'll see his name on all the pages
B7                          B7/C           D                
And it's the Fourth of July. It's in their eyes (the cops leave us alone)

[Chorus]
C     D     Em    F#m
Ohhhh Ahhh  Ohhh  Ahhh
C     D     Em    F#m
Ohhhh Ahhh  Ohhh  Ahhh
C     D     Em    F#m
Ohhhh Ahhh  Ohhh  Ahhh

[Outro]
C
Don't stop there, I am coming home
Suggest correction
Give kudos to tab author, rate the tab!
1 2 3 4 5
comments
print report bad tab
guest
You may want to rate the tab now too:
select rating
Wanna post a correction for this tab? Suggest correction