Oops, an error
Loading. Please wait.

Come Now Is The Time To Worship Tab

version 1
version 1

Whole song

Interactive

9,682 views 3 this week
no commentswrite comment
1 2 3 4 5
please rate
add to favorites
launch autoscroll
font size
0
reset
how to read this tab
guitar tuner
Autoscroll
slow
fast
+/-
esc
set tempo
stop
Help us to improve Ultimate-Guitar.com Take our survey!
×
Author
Difficulty
intermediate
Lead Part
Intro
-7--9--11--13^--12--12-12-12-12--11--9------------------------------------|x2
--------------------------------------------------------------------------|x2
--------------------------------------------------------------------------|x2
--------------------------------------------------------------------------|x2
--------------------------------------------------------------------------|x2
--------------------------------------------------------------------------|x2
Verse
--------------------------------------------------------------------------|x2
--------------------------------------------------------------------------|x2
-4x16--------------4x8----------------------------------------------------|x2
-4x16--6x16--2x16--2x8-4x8------------------------------------------------|x2
-2x16--6x16--2x16--2x8-4x8------------------------------------------------|x2
-------4x16--0x16------2x8------------------------------------------------|x2

Bridge 1
-------------------------------------------------------------------------|
-5-5-5-5--4-4-4-4--2-2-2-2--0-0-0-0--------------------------------------|
-------------------------------------------------------------------------|
-------------------------------------------------------------------------|
-------------------------------------------------------------------------|
-------------------------------------------------------------------------|

Chorus
-----------------------------------5-7-5-7--------6-7-6------------------|
-99999-7-5-7-7-7-4-20--99999-7-5-7---------999999-------9-7-9-7-7-5-77---|
-------------------------------------------------------------------------|
-------------------------------------------------------------------------|
-------------------------------------------------------------------------|
-------------------------------------------------------------------------|

Bridge 2
-7--9--11--13^--12--12-12-12-12--11--9------------------------------------|x2
--------------------------------------------------------------------------|x2
--------------------------------------------------------------------------|x2
--------------------------------------------------------------------------|x2
--------------------------------------------------------------------------|x2
--------------------------------------------------------------------------|x2

Verse
--------------------------------------------------------------------------|x2
--------------------------------------------------------------------------|x2
-4x16--------------4x8----------------------------------------------------|x2
-4x16--6x16--2x16--2x8-4x8------------------------------------------------|x2
-2x16--6x16--2x16--2x8-4x8------------------------------------------------|x2
-------4x16--0x16------2x8------------------------------------------------|x2

Bridge 1
-------------------------------------------------------------------------|
-5-5-5-5--4-4-4-4--2-2-2-2--0-0-0-0--------------------------------------|
-------------------------------------------------------------------------|
-------------------------------------------------------------------------|
-------------------------------------------------------------------------|
-------------------------------------------------------------------------|

Chorus
-----------------------------------5-7-5-7--------6-7-6-------------------|x2
-99999-7-5-7-7-7-4-20--99999-7-5-7---------999999-------9-7-9-7-7-5-77----|x2
--------------------------------------------------------------------------|x2
--------------------------------------------------------------------------|x2
--------------------------------------------------------------------------|x2
--------------------------------------------------------------------------|x2

Bridge 2
-7--9--11--13^--12--12-12-12-12--11--9-----------------------------------|
-------------------------------------------------------------------------|
-------------------------------------------------------------------------|
-------------------------------------------------------------------------|
-------------------------------------------------------------------------|
-------------------------------------------------------------------------|

Solo
7--9--11--13^-16--16--16--16-1414-1212-1111-----------------------------|
--------------------------------------------1212------------------------|
------------------------------------------------------------------------|
------------------------------------------------------------------------|
------------------------------------------------------------------------|
------------------------------------------------------------------------|

Verse 3(Let Rhythm Play 1st half alone)(Use Phaze effect)
12-11-9-9-10----12-11-9-9-10----14-12-11-9----14-12-11-9----14-12-11-9---|
------------12--------------12------------12------------12------------12-|
-------------------------------------------------------------------------|
-------------------------------------------------------------------------|
-------------------------------------------------------------------------|
-------------------------------------------------------------------------|

Chorus
-----------------------------------5-7-5-7--------6-7-6-------------------|x2
-99999-7-5-7-7-7-4-20--99999-7-5-7---------999999-------9-7-9-7-7-5-77----|x2
--------------------------------------------------------------------------|x2
--------------------------------------------------------------------------|x2
--------------------------------------------------------------------------|x2
--------------------------------------------------------------------------|x2

Outro Pt.1
14-12-11-9-7--16-16-16--14-12-11-9-7--1619161916------------------------|
------------------------------------------------------------------------|
------------------------------------------------------------------------|
------------------------------------------------------------------------|
------------------------------------------------------------------------|
------------------------------------------------------------------------|

Outro Pt.2
14-12-11-9-16191619161916191616--14-12-11-9-7--16-16-16-16-14-----------|
------------------------------------------------------------------------|
------------------------------------------------------------------------|
------------------------------------------------------------------------|
------------------------------------------------------------------------|
------------------------------------------------------------------------|
Suggest correction
What's this?
You can suggest a correction to this tab. Community and Mods will review your correction and vote to approve or reject it.
comments
We did not receive enough feedback on this tab! Please rate:
print report bad tab
1 2 3 4 5
guest
You may want to rate the tab now too:
select rating
Please do not post tabs as comments. Select "correction" instead!