Oops, an error
Loading. Please wait.

Backwater Bass Tab

55 views 3 this week
no commentswrite comment
1 2 3 4 5
3 more votes to show rating
add to favorites
launch autoscroll
font size
0
reset
guitar tuner
Autoscroll
slow
fast
+/-
esc
set tempo
stop
Help us to improve Ultimate-Guitar.com Take our survey!
×
Author
Difficulty
novice
[Intro]

G|----------------------|---------------------|-----------------|----------------|
D|--------------------3-|-------------------3-|---------------3-|---0-2-3--3-0---|
A|----------------------|---------------------|-----------------|-1------------3-|
E|--1-x-1-x-1-(x-x)-1---|-1-x-1-x-1-(x-x)-1---|-1-x-1-x-1-x-1---|----------------|


[Verse]

G|----------------------|---------------------|-----------------|----------------| (x2)
D|--------------------3-|-------------------3-|---------------3-|---0-2-3--3-0---|
A|----------------------|---------------------|-----------------|-1------------3-|
E|--1-x-1-x-1-(x-x)-1---|-1-x-1-x-1-(x-x)-1---|-1-x-1-x-1-x-1---|----------------|


[Chorus]

G|-------------------3-|-------------------3-|-----------------|-----------------|
D|---------------------|---------------------|-----------------|-----------------|
A|-1-x-1-x-1-(x-x)-1---|-1-x-1-x-1-(x-x)-1---|-0-x-0-x---------|-0-x-0-x---------|
E|---------------------|---------------------|---------1-x-1-x-|---------1-x-1-x-|


G|-------------------3-|-------------------3-|-----------------|-----------------|
D|---------------------|---------------------|-----------------|---------3-x-2-3-|
A|-1-x-1-x-1-(x-x)-1---|-1-x-1-x-1-(x-x)-1---|-0-x-0-x---------|-0---------------|
E|---------------------|---------------------|---------1-x-1-x-|---4-3-1---------|


[Verse]

G|---------------------|---------------------|-----------------|-----------------| 
D|-------------------3-|-------------------3-|---------------3-|-----2-3-2-0-----|
A|---------------------|---------------------|-----------------|-1-3---------3-1-|
E|-1-x-1-x-1-(x-x)-1---|-1-x-1-x-1-(x-x)-1---|-1-x-1-x-1-x-1---|-----------------|


G|---------------------|---------------------|---------------------|----------------|
D|-------------------3-|-------------------3-|-------------------3-|-----2-3--3-0---|
A|---------------------|---------------------|---------------------|-1-3----------3-|
E|-1-x-1-x-1-(x-x)-1---|-1-x-1-x-1-(x-x)-1---|-1-x-1-x-1-(x-x)-1---|----------------|


[Chorus]

G|-------------------3-|-------------------3-|-----------------|-----------------|
D|---------------------|---------------------|-----------------|-----------------|
A|-1-x-1-x-1-(x-x)-1---|-1-x-1-x-1-(x-x)-1---|-0-x-0-x---------|-0-x-0-x---------|
E|---------------------|---------------------|---------1-x-1-x-|---------1-x-1-x-|


G|-------------------3-|-------------------3-|-----------------|-----------------|
D|---------------------|---------------------|-----------------|---------0-1-2-3-|
A|-1-x-1-x-1-(x-x)-1---|-1-x-1-x-1-(x-x)-1---|-0-x-0-x---------|-0---------------|
E|---------------------|---------------------|---------1-x-1-x-|---4-3-1---------|


[Verse]

G|---------------------|---------------------|-----------------|----------------| (x2)
D|-------------------3-|-------------------3-|---------------3-|-----2-3--3-0---|
A|---------------------|---------------------|-----------------|-1-3----------3-|
E|-1-x-1-x-1-(x-x)-1---|-1-x-1-x-1-(x-x)-1---|-1-x-1-x-1-x-1---|----------------|


[Chorus]

G|-------------------3-|-------------------3-|-----------------|-----------------|
D|---------------------|---------------------|-----------------|-----------------|
A|-1-x-1-x-1-(x-x)-1---|-1-x-1-x-1-(x-x)-1---|-0-x-0-x---------|-0-x-0-x---------|
E|---------------------|---------------------|---------1-x-1-x-|---------1-x-1-x-|


G|-------------------3-|-------------------3-|-----------------|-----------------|
D|---------------------|---------------------|-----------------|---------0-1-2-3-|
A|-1-x-1-x-1-(x-x)-1---|-1-x-1-x-1-(x-x)-1---|-0-x-0-x---------|-0---------------|
E|---------------------|---------------------|---------1-x-1-x-|---4-3-1---------|


[Instrumental]

G|---------------------|---------------------|-----------------|----------------| (x2)
D|-------------------3-|-------------------3-|---------------3-|-----2-3--3-0---|
A|---------------------|---------------------|-----------------|-1-3----------3-|
E|-1-x-1-x-1-(x-x)-1---|-1-x-1-x-1-(x-x)-1---|-1-x-1-x-1-x-1---|----------------|


G|-------------------3-|-------------------3-|-----------------|-----------------|
D|---------------------|---------------------|-----------------|-----------------|
A|-1-x-1-x-1-(x-x)-1---|-1-x-1-x-1-(x-x)-1---|-0-x-0-x---------|-0-x-0-x---------|
E|---------------------|---------------------|---------1-x-1-x-|---------1-x-1-x-|


G|-------------------3-|-------------------3-|-----------------|-----------------|
D|---------------------|---------------------|-----------------|-----------------|
A|-1-x-1-x-1-(x-x)-1---|-1-x-1-x-1-(x-x)-1---|-0-x-0-x---------|-0---------------|
E|---------------------|---------------------|---------1-x-1-x-|---4-3-1-1-x-1-x-|


[Verse]

G|---------------------|---------------------|-----------------|----------------| (x2)
D|-------------------3-|-------------------3-|---------------3-|-----2-3--3-0---|
A|---------------------|---------------------|-----------------|-1-3----------3-|
E|-1-x-1-x-1-(x-x)-1---|-1-x-1-x-1-(x-x)-1---|-1-x-1-x-1-x-1---|----------------|


[Chorus]

G|-------------------3-|-------------------3-|-----------------|-----------------|
D|---------------------|---------------------|-----------------|-----------------|
A|-1-x-1-x-1-(x-x)-1---|-1-x-1-x-1-(x-x)-1---|-0-x-0-x---------|-0-x-0-x---------|
E|---------------------|---------------------|---------1-x-1-x-|---------1-x-1-x-|


G|-------------------3-|-------------------3-|-----------------|-----------------|
D|---------------------|---------------------|-----------------|---------0-1-2-3-|
A|-1-x-1-x-1-(x-x)-1---|-1-x-1-x-1-(x-x)-1---|-0-x-0-x---------|-0---------------|
E|---------------------|---------------------|---------1-x-1-x-|---4-3-1---------|


[Outro] (x2)

G|---------------------|---------------------|-----------------|----------------|
D|-------------------3-|-------------------3-|---------------3-|-----2-3--3-0---|
A|---------------------|---------------------|-----------------|-1-3----------3-|
E|-1-x-1-x-1-(x-x)-1---|-1-x-1-x-1-(x-x)-1---|-1-x-1-x-1-x-1---|----------------|


G|---------------------|---------------------|-----------------|-----------------| 
D|-------------------3-|-------------------3-|---------------3-|-----2-3-0-------|
A|---------------------|---------------------|-----------------|-1-3-------3-1-0-|
E|-1-x-1-x-1-(x-x)-1---|-1-x-1-x-1-(x-x)-1---|-1-x-1-x-1-x-1---|-----------------|


G|-------------------3-|-------------------3-|-----------------|-----------------|
D|---------------------|---------------------|-----------------|-----------------|
A|-1-x-1-x-1-(x-x)-1---|-1-x-1-x-1-(x-x)-1---|-0-x-0-x---------|-0-x-0-x---------|
E|---------------------|---------------------|---------1-x-1-x-|---------1-x-1-x-|


G|-------------------3-|-------------------3-|-----------------|-----------------|
D|---------------------|---------------------|-----------------|-----------------|
A|-1-x-1-x-1-(x-x)-1---|-1-x-1-x-1-(x-x)-1---|-0-x-0-x---------|-0---------------|
E|---------------------|---------------------|---------1-x-1-x-|---4-3-1-1-x-1-x-|



****************************

| x : dead note
| ( ) : very fast 

****************************

in regular sequence!
Suggest correction
Give kudos to tab author, rate the tab!
1 2 3 4 5
comments
print report bad tab
guest
You may want to rate the tab now too:
select rating
Wanna post a correction for this tab? Suggest correction