Oops, an error
Loading. Please wait.

Mother Whale Eyeless Bass Tab

55 views 1 this week
no commentswrite comment
1 2 3 4 5
3 more votes to show rating
add to favorites
launch autoscroll
font size
0
reset
guitar tuner
Autoscroll
slow
fast
+/-
esc
set tempo
stop
Help us to improve Ultimate-Guitar.com Take our survey!
×
Author
Difficulty
novice
[Intro]

G|----------------------|-----------------------------|-----------------------------|
D|----------------------|-----------------------------|-----------------------------|
A|--3-3--3-3--3-3--3-3--|--3-1--1-1-3--3-3--3-3--3-3--|--3-1--1-1-3--3-3--3-3--3-3--|
E|----------------------|-----------------------------|-----------------------------|


G|-----------------------------|-------|
D|-----------------------------|-------|
A|--3-1--1-1-3--3-3--3-3--3-3--|--3-1--|
E|-----------------------------|-------|


[Verse 1]

G|------------------------|-----------------------------|-----------------------------|
D|------------------------|-----------------------------|-----------------------------|
A|--1-3-3--3-3--3-3--3-3--|--3-1--1-1-3--3-3--3-3--3-3--|--3-1--1-1-3--3-3--3-3--3-3--|
E|------------------------|-----------------------------|-----------------------------|


G|-----------------------------|---------|
D|-----------------------------|---------|
A|--3-1--1-1-3--3-3--3-3--3-3--|--3-1--1-|
E|-----------------------------|---------|


[Chorus] (x2)

G|-----------------|-----------------|-----------------|-----------------|
D|-5---5---5---5---|-5---5---5---5---|---7---7---7---7-|---7---7---7---7-|
A|---5---5---5---5-|---5---5---5---5-|-5---5---5---5---|-5---5---5---5---|
E|-----------------|-----------------|-----------------|-----------------|


G|-----------------|-----------------|---------------------|---------------------|
D|-----------------|-----------------|---10---10---10---10-|---10---10---10---10-|
A|---8---8---8---8-|---8---8---8---8-|-8----8----8----8----|-8----8----8----8----|
E|-6---6---6---6---|-6---6---6---6---|---------------------|---------------------|


[Verse 2]

G|---------------------|-----------------------------|-----------------------------|
D|---------------------|-----------------------------|-----------------------------|
A|-3-3--3-3--3-3--3-3--|--3-1--1-1-3--3-3--3-3--3-3--|--3-1--1-1-3--3-3--3-3--3-3--|
E|---------------------|-----------------------------|-----------------------------|


G|-----------------------------|---------|
D|-----------------------------|---------|
A|--3-1--1-1-3--3-3--3-3--3-3--|--3-1--1-|
E|-----------------------------|---------|


[Chorus] (x2)

G|-----------------|-----------------|-----------------|-----------------|
D|-5---5---5---5---|-5---5---5---5---|---7-----7---7---|---7-----7---7---|
A|---5---5---5---5-|---5---5---5---5-|-5---5-5---5---5-|-5---5-5---5---5-|
E|-----------------|-----------------|-----------------|-----------------|


G|-----------------|-----------------|--------------------|--------------------|
D|-----------------|-----------------|---10-----10---10---|---10-----10---10---|
A|---8-----8---8---|---8-----8---8-8-|-8----8-8----8----8-|-8----8-8----8----8-|
E|-6---6-6---6---6-|-6---6-6---6-----|--------------------|--------------------|


[Bridge]

G|---------------|-------------|--------------|--------------| (x8)
D|---------------|--7---9---7--|--------------|--------------|
A|-10--------10--|-------------|--10---7---9--|--10---7---9--|
E|------10-------|-------------|--------------|--------------|


[Verse 3]

G|---------------------|-----------------------------|-----------------------------|
D|---------------------|-----------------------------|-----------------------------|
A|-3-3--3-3--3-3--3-3--|--3-1--1-1-3--3-3--3-3--3-3--|--3-1--1-1-3--3-3--3-3--3-3--|
E|---------------------|-----------------------------|-----------------------------|


G|-----------------------------|---------|
D|-----------------------------|---------|
A|--3-1--1-1-3--3-3--3-3--3-3--|--3-1--1-|
E|-----------------------------|---------|


[Instrumental]

G|-----------------|-----------------|-----------------|-----------------|
D|-5---5---5---5---|-5---5---5---5---|---7-----7---7---|---7-----7---7---|
A|---5---5---5---5-|---5---5---5---5-|-5---5-5---5---5-|-5---5-5---5---5-|
E|-----------------|-----------------|-----------------|-----------------|


G|-----------------|-----------------|--------------------|--------------------|
D|-----------------|-----------------|---10-----10---10---|---10-----10---10---|
A|---8-----8---8---|---8-----8---8-8-|-8----8-8----8----8-|-8----8-8----8----8-|
E|-6---6-6---6---6-|-6---6-6---6-----|--------------------|--------------------|


G|-----------------|-----------------|-----------------|-----------------|
D|-5---5---5---5---|-5---5---5---5---|---7-----7---7---|---7-----7---7---|
A|---5---5---5---5-|---5---5---5---5-|-5---5-5---5---5-|-5---5-5---5-----|
E|-----------------|-----------------|-----------------|---------------8-|


G|-----------------|-----------------|--------------------|--------------------|
D|-----------------|-----------------|---10-----10---10---|---10-----10---10---|
A|---8-----8---8---|---8-----8---8-8-|-8----8-8----8----8-|-8----8-8----8----8-|
E|-6---6-6---6---6-|-6---6-6---6-----|--------------------|--------------------|


[Chorus] (repeat until the end)

G|-----------------|-----------------|-----------------|-----------------|
D|-5---5---5---5---|-5---5---5---5---|---7-----7---7---|---7-----7---7---|
A|---5---5---5---5-|---5---5---5---5-|-5---5-5---5---5-|-5---5-5---5---5-|
E|-----------------|-----------------|-----------------|-----------------|


G|-----------------|-----------------|--------------------|--------------------|
D|-----------------|-----------------|---10-----10---10---|---10-----10---10---|
A|---8-----8---8---|---8-----8---8-8-|-8----8-8----8----8-|-8----8-8----8----8-|
E|-6---6-6---6---6-|-6---6-6---6-----|--------------------|--------------------|



***************************

in regular sequence!

***************************
Suggest correction
Give kudos to tab author, rate the tab!
1 2 3 4 5
comments
print report bad tab
guest
You may want to rate the tab now too:
select rating
Wanna post a correction for this tab? Suggest correction