Oops, an error
Loading. Please wait.

Adonai tab

version 2
version 2

Whole song

Interactive

1,680 views 3 this week
no commentswrite comment
1 2 3 4 5
3 more votes to show rating
add to favorites
×
Save as Personal and add changes to this tab that will be seen only by you. Learn more ›
×
You can save this tab as Personal to edit and correct it or add notes. All changes will be seen only by you. Learn more »
launch autoscroll
font size
0
reset
how to read this tab
guitar tuner
edit
Autoscroll
slow
fast
+/-
esc
set tempo
stop
Author
 Artist:Brian Head Welch
 Song:Adonia
 Album:Save Me From Myself
 Tabbed By:Head18902
 Tuning:ADGCFad,7 String Version

 Legend: ..-Palm Mute,h-Hammer on,p-Pull Off
            b-Bend
 
Note:I Know he doesn't use a 7 string on his album but it 
     works for either a 7 or 6 string.
      

Intro Ryhthm Guitar
d|------------------------------------------------------|
a|------------------------------------------------------|
F|------------------------------------------------------|
C|-8--8--8--8-----4--4--4--4-----------------6--6--7--7-|
G|-8--8--8--8-----4--4--4--4----4--4--4--4---6--6--7--7-|
D|-6--6--6--6-----2--2--2--2----4--4--4--4---4--4--5--5-|
A|------------------------------2--2--2--2--------------|

 Lead Intro 1
d|-----------------------------------------------|
a|-13--------------------------------------------|
F|----------------11----10-------------13-14--15-|
C|------------11---------------------------------|
G|-----------------------------------------------|
D|-----------------------------------------------|
A|-----------------------------------------------|
 
 Intro Ryhthm Guitar
d|-------------------------------------------------------|
a|-------------------------------------------------------|
F|-------------------------------------------------------|
C|-8--8--8--8-----4--4--4--4-----------------------------|
G|-8--8--8--8-----4--4--4--4----4--4--4--4----8--8--8--8-|
D|-6--6--6--6-----2--2--2--2----4--4--4--4----8--8--8--8-|
A|------------------------------2--2--2--2----6--6--6--6-|

 Lead Intro 1
d|----------------------------------------------|
a|-13--------------------------------------13-16|
F|-----------------11---10-----------14-15------|
C|-------------11-------------------------------|
G|----------------------------------------------|
D|----------------------------------------------| 
A|----------------------------------------------|

 Intro Ryhthm Guitar
d|------------------------------------------------------|
a|------------------------------------------------------|
F|------------------------------------------------------|
C|-8--8--8--8-----4--4--4--4-----------------6--6--7--7-|
G|-8--8--8--8-----4--4--4--4----4--4--4--4---6--6--7--7-|
D|-6--6--6--6-----2--2--2--2----4--4--4--4---4--4--5--5-|
A|------------------------------2--2--2--2--------------|

 Lead Intro 2
d|-11-----13------9-----11--14--13----11-----9--11--8---|
a|-----9------9------9--------------9----9--------------|
F|------------------------------------------------------|
C|------------------------------------------------------|
G|------------------------------------------------------|
D|------------------------------------------------------|
A|------------------------------------------------------|
       ..     ..     ..             ..   ..
 Intro Ryhthm Guitar
d|-------------------------------------------------------|
a|-------------------------------------------------------|
F|-------------------------------------------------------|
C|-8--8--8--8-----4--4--4--4-----------------------------|
G|-8--8--8--8-----4--4--4--4----4--4--4--4----8--8--8--8-|
D|-6--6--6--6-----2--2--2--2----4--4--4--4----8--8--8--8-|
A|------------------------------2--2--2--2----6--6--6--6-|

 Lead Intro 2
d|-11-----13------9-----11--14--13----11------------------|
a|-----9------9------9--------------9----9---13--12--11---|
F|------------------------------------------------------12|
C|--------------------------------------------------------|
G|--------------------------------------------------------|
D|--------------------------------------------------------|
A|--------------------------------------------------------|
      ..      ..    ..              ..   ..                   

 Verse Ryhthm Guitar 4x              Lead Fill 8x
d|--------------------------------| d|--16b(18)-|
a|--------------------------------| a|----------|
F|--------------------------------| F|----------|
C|--------------------------------| C|----------|
G|-8-8--------------------8-8--6-4| G|----------|
D|-8-8--------------------8-8--6-4| D|----------|
A|-6-6---2h4p2--7-2-6-2---6-6--4-2| A|----------|     


 Pre-Chours Ryhthm Guitar 2x         Lead Fill 1 4x
d|--------------------------------| d|--16b(18)-|
a|--------------------------------| a|----------|
F|--------------------------------| F|----------|
C|--------------------------------| C|----------|
G|-8-8--------------------8-8--6-4| G|----------|
D|-8-8--------------------8-8--6-4| D|----------|
A|-6-6---2h4p2--7-2-6-2---6-6--4-2| A|----------|

 Pre-Chours Lead Guitar 2x
d|-18----17--------------13-------|
a|------------------------------16|
F|--------------------------------|
C|--------------------------------|
G|--------------------------------|
D|--------------------------------|
A|--------------------------------|

 Pre-Chours Ryhthm Guitar 2x            Lead Fill 1 4x
d|--------------------------------|   d|--16b(18)-|
a|--------------------------------|   a|----------|
F|--------------------------------|   F|----------|
C|--------------------------------|   C|----------|
G|-8-8--------------------8-8--6-4|   G|----------|
D|-8-8--------------------8-8--6-4|   D|----------|
A|-6-6---2h4p2--7-2-6-2---6-6--4-2|   A|----------|
 
 Pre-Chours Lead Guitar 2x
d|-18----17--------------13----14-|
a|--------------------------------|
F|--------------------------------|
C|--------------------------------|
G|--------------------------------|
D|--------------------------------|
A|--------------------------------|


 Chours Ryhthm 
d|------------------------------------------------------|
a|------------------------------------------------------|
F|------------------------------------------------------|
C|-8--8--8--8-----4--4--4--4-----------------6--6--7--7-|
G|-8--8--8--8-----4--4--4--4----4--4--4--4---6--6--7--7-|
D|-6--6--6--6-----2--2--2--2----4--4--4--4---4--4--5--5-|
A|------------------------------2--2--2--2--------------|

 Lead Chours 1
d|-----------------------------------------------|
a|-13--------------------------------------------|
F|----------------11----10-------------13---15---|
C|------------11---------------------------------|
G|-----------------------------------------------|
D|-----------------------------------------------|
A|-----------------------------------------------|
 Chours Ryhthm 
d|-------------------------------------------------------|
a|-------------------------------------------------------|
F|-------------------------------------------------------|
C|-8--8--8--8-----4--4--4--4-----------------------------|
G|-8--8--8--8-----4--4--4--4----4--4--4--4----8--8--8--8-|
D|-6--6--6--6-----2--2--2--2----4--4--4--4----8--8--8--8-|
A|------------------------------2--2--2--2----6--6--6--6-|

 Lead Chours 1
d|----------------------------------------------|
a|-13--------------------------------------13---|
F|-----------------11---10-----------14-15------|
C|-------------11-------------------------------|
G|----------------------------------------------|
D|----------------------------------------------| 
A|----------------------------------------------|

 Verse Ryhthm Guitar  4x               Lead Fill 8x
d|--------------------------------| d|--16b(18)-|
a|--------------------------------| a|----------|
F|--------------------------------| F|----------|
C|--------------------------------| C|----------|
G|-8-8--------------------8-8--6-4| G|----------|
D|-8-8--------------------8-8--6-4| D|----------|
A|-6-6---2h4p2--7-2-6-2---6-6--4-2| A|----------|

 Pre-Chours Ryhthm Guitar 2x           Lead Fill 1 4x
d|--------------------------------|   d|--16b(18)-|
a|--------------------------------|   a|----------|
F|--------------------------------|   F|----------|
C|--------------------------------|   C|----------|
G|-8-8--------------------8-8--6-4|   G|----------|
D|-8-8--------------------8-8--6-4|   D|----------|
A|-6-6---2h4p2--7-2-6-2---6-6--4-2|   A|----------|

 Pre-Chours Lead Guitar 2x
d|-18----17--------------13-------|
a|------------------------------16|
F|--------------------------------|
C|--------------------------------|
G|--------------------------------|
D|--------------------------------|
A|--------------------------------|

 Pre-Chours Ryhthm Guitar  2x           Lead Fill 1
d|--------------------------------|   d|--16b(18)-|
a|--------------------------------|   a|----------|
F|--------------------------------|   F|----------|
C|--------------------------------|   C|----------|
G|-8-8--------------------8-8--6-4|   G|----------|
D|-8-8--------------------8-8--6-4|   D|----------|
A|-6-6---2h4p2--7-2-6-2---6-6--4-2|   A|----------|
 
 Pre-Chours Lead Guitar 2x
d|-18----17--------------13----14-|
a|--------------------------------|
F|--------------------------------|
C|--------------------------------|
G|--------------------------------|
D|--------------------------------|
A|--------------------------------|

 Chours Ryhthm Guitar
d|------------------------------------------------------|
a|------------------------------------------------------|
F|------------------------------------------------------|
C|-8--8--8--8-----4--4--4--4-----------------6--6--7--7-|
G|-8--8--8--8-----4--4--4--4----4--4--4--4---6--6--7--7-|
D|-6--6--6--6-----2--2--2--2----4--4--4--4---4--4--5--5-|
A|------------------------------2--2--2--2--------------|

 Lead Chours 1
d|-----------------------------------------------|
a|-13--------------------------------------------|
F|----------------11----10-------------13-14--15-|
C|------------11---------------------------------|
G|-----------------------------------------------|
D|-----------------------------------------------|
A|-----------------------------------------------|
 
 Chours Ryhthm Guitar
d|-------------------------------------------------------|
a|-------------------------------------------------------|
F|-------------------------------------------------------|
C|-8--8--8--8-----4--4--4--4-----------------------------|
G|-8--8--8--8-----4--4--4--4----4--4--4--4----8--8--8--8-|
D|-6--6--6--6-----2--2--2--2----4--4--4--4----8--8--8--8-|
A|------------------------------2--2--2--2----6--6--6--6-|

 Lead Chours 1
d|----------------------------------------------|
a|-13--------------------------------------13-16|
F|-----------------11---10-----------14-15------|
C|-------------11-------------------------------|
G|----------------------------------------------|
D|----------------------------------------------| 
A|----------------------------------------------|

 Chours Ryhthm Guitar
d|------------------------------------------------------|
a|------------------------------------------------------|
F|------------------------------------------------------|
C|-8--8--8--8-----4--4--4--4-----------------6--6--7--7-|
G|-8--8--8--8-----4--4--4--4----4--4--4--4---6--6--7--7-|
D|-6--6--6--6-----2--2--2--2----4--4--4--4---4--4--5--5-|
A|------------------------------2--2--2--2--------------|

 Lead Chours 2
d|-11-----13------9-----11--14--13----11-----9--11--8---|
a|-----9------9------9--------------9----9--------------|
F|------------------------------------------------------|
C|------------------------------------------------------|
G|------------------------------------------------------|
D|------------------------------------------------------|
A|------------------------------------------------------|
       ..     ..     ..             ..   ..
 Chours Ryhthm Guitar
d|-------------------------------------------------------|
a|-------------------------------------------------------|
F|-------------------------------------------------------|
C|-8--8--8--8-----4--4--4--4-----------------------------|
G|-8--8--8--8-----4--4--4--4----4--4--4--4----8--8--8--8-|
D|-6--6--6--6-----2--2--2--2----4--4--4--4----8--8--8--8-|
A|------------------------------2--2--2--2----6--6--6--6-|

 Lead Chours 2
d|-11-----13------9-----11--14--13----11------------------|
a|-----9------9------9--------------9----9---13--12--11---|
F|------------------------------------------------------12|
C|--------------------------------------------------------|
G|--------------------------------------------------------|
D|--------------------------------------------------------|
A|--------------------------------------------------------|
      ..      ..    ..              ..  ..                   
 Bridge 1
d|-------------------------------------------------------|
a|-------------------------------------------------------|
F|-------------------------------------------------------|
C|-------------------------------------------------------|
G|-8--------------------------------------------------9--|
D|-8--------------------------------------------------9--|
A|-6--------------------------------------------------7--|

 Bridge 2 4x
d|--------------------------------------------------------------|
a|--------------------------------------------------------------|
F|--------------------------------------------------------------|
C|--------------------------------------------------------------|
G|-8---8-----------------------9----8---8----------------------6|
D|-8---8---11--10--9--8--7--8--9----8---8--11---10-9--8--7--8--6|
A|-6---6----9---8--7--6--5--6--7----6---6---9---8--7--6--5--6--4|

 Bass Break


 Chours Ryhthm Guitar
d|------------------------------------------------------|
a|------------------------------------------------------|
F|------------------------------------------------------|
C|-8--8--8--8-----4--4--4--4-----------------6--6--7--7-|
G|-8--8--8--8-----4--4--4--4----4--4--4--4---6--6--7--7-|
D|-6--6--6--6-----2--2--2--2----4--4--4--4---4--4--5--5-|
A|------------------------------2--2--2--2--------------|

 Lead Chours 1
d|-----------------------------------------------|
a|-13--------------------------------------------|
F|----------------11----10-------------13-14--15-|
C|------------11---------------------------------|
G|-----------------------------------------------|
D|-----------------------------------------------|
A|-----------------------------------------------|
 
 Chours Ryhthm Guitar
d|-------------------------------------------------------|
a|-------------------------------------------------------|
F|-------------------------------------------------------|
C|-8--8--8--8-----4--4--4--4-----------------------------|
G|-8--8--8--8-----4--4--4--4----4--4--4--4----8--8--8--8-|
D|-6--6--6--6-----2--2--2--2----4--4--4--4----8--8--8--8-|
A|------------------------------2--2--2--2----6--6--6--6-|

 Lead Chours 1
d|----------------------------------------------|
a|-13--------------------------------------13-16|
F|-----------------11---10-----------14-15------|
C|-------------11-------------------------------|
G|----------------------------------------------|
D|----------------------------------------------| 
A|----------------------------------------------|

 Chours Ryhthm Guitar
d|------------------------------------------------------|
a|------------------------------------------------------|
F|------------------------------------------------------|
C|-8--8--8--8-----4--4--4--4-----------------6--6--7--7-|
G|-8--8--8--8-----4--4--4--4----4--4--4--4---6--6--7--7-|
D|-6--6--6--6-----2--2--2--2----4--4--4--4---4--4--5--5-|
A|------------------------------2--2--2--2--------------|

 Lead Chours 2
d|-11-----13------9-----11--14--13----11-----9--11--8---|
a|-----9------9------9--------------9----9--------------|
F|------------------------------------------------------|
C|------------------------------------------------------|
G|------------------------------------------------------|
D|------------------------------------------------------|
A|------------------------------------------------------|
       ..     ..     ..             ..   ..
 Chours Ryhthm Guitar
d|-------------------------------------------------------|
a|-------------------------------------------------------|
F|-------------------------------------------------------|
C|-8--8--8--8-----4--4--4--4-----------------------------|
G|-8--8--8--8-----4--4--4--4----4--4--4--4----8--8--8--8-|
D|-6--6--6--6-----2--2--2--2----4--4--4--4----8--8--8--8-|
A|------------------------------2--2--2--2----6--6--6--6-|

 Lead Chours 2
d|-11-----13------9-----11--14--13----11------------------|
a|-----9------9------9--------------9----9---13--12--11---|
F|------------------------------------------------------12|
C|--------------------------------------------------------|
G|--------------------------------------------------------|
D|--------------------------------------------------------|
A|--------------------------------------------------------|
      ..      ..    ..              ..  ..                   

 Outro Chours Ryhthm Guitar
d|------------------------------------------------------|
a|------------------------------------------------------|
F|------------------------------------------------------|
C|-8--8--8--8-----4--4--4--4-----------------6--6--7--7-|
G|-8--8--8--8-----4--4--4--4----4--4--4--4---6--6--7--7-|
D|-6--6--6--6-----2--2--2--2----4--4--4--4---4--4--5--5-|
A|------------------------------2--2--2--2--------------|

 Lead Outro Chours 1
d|-----------------------------------------------|
a|-13--------------------------------------------|
F|----------------11----10-------------13-14--15-|
C|------------11---------------------------------|
G|-----------------------------------------------|
D|-----------------------------------------------|
A|-----------------------------------------------|
 
 Outro Chours Ryhthm Guitar
d|-------------------------------------------------------|
a|-------------------------------------------------------|
F|-------------------------------------------------------|
C|-8--8--8--8-----4--4--4--4-----------------------------|
G|-8--8--8--8-----4--4--4--4----4--4--4--4----8--8--8--8-|
D|-6--6--6--6-----2--2--2--2----4--4--4--4----8--8--8--8-|
A|------------------------------2--2--2--2----6--6--6--6-|

 Lead Outro Chours 1
d|----------------------------------------------|
a|-13--------------------------------------13-16|
F|-----------------11---10-----------14-15------|
C|-------------11-------------------------------|
G|----------------------------------------------|
D|----------------------------------------------| 
A|----------------------------------------------|
 
Outro Chours Ryhthm Guitar
d|------------------------------------------------------|
a|------------------------------------------------------|
F|------------------------------------------------------|
C|-8--8--8--8-----4--4--4--4-----------------6--6--7--7-|
G|-8--8--8--8-----4--4--4--4----4--4--4--4---6--6--7--7-|
D|-6--6--6--6-----2--2--2--2----4--4--4--4---4--4--5--5-|
A|------------------------------2--2--2--2--------------|

 Lead Outro Chours 2
d|-11-----13------9-----11--14--13----11-----9--11--8---|
a|-----9------9------9--------------9----9--------------|
F|------------------------------------------------------|
C|------------------------------------------------------|
G|------------------------------------------------------|
D|------------------------------------------------------|
A|------------------------------------------------------|
       ..     ..     ..             ..   ..
 Outro Chours Ryhthm Guitar
d|-------------------------------------------------------|
a|-------------------------------------------------------|
F|-------------------------------------------------------|
C|-8--8--8--8-----4--4--4--4-----------------------------|
G|-8--8--8--8-----4--4--4--4----4--4--4--4----8--8--8--8-|
D|-6--6--6--6-----2--2--2--2----4--4--4--4----8--8--8--8-|
A|------------------------------2--2--2--2----6--6--6--6-|

 Lead Outro Chours 2
d|-11-----13------9-----11--14--13----11------------------|
a|-----9------9------9--------------9----9---13--12--11---|
F|------------------------------------------------------12|
C|--------------------------------------------------------|
G|--------------------------------------------------------|
D|--------------------------------------------------------|
A|--------------------------------------------------------|
      ..      ..    ..              ..  ..                   

Listen To The Timing.



            
            
Suggest correction
Creating personal tab
Creating personal tab
You can edit any tab online and save it as your Personal.

You can edit, replace or remove any tab part or add personal notes – all changes will be seen only by you.

Personal tabs can be accessed anytime from any device, even offline.
Learn more »
Give kudos to tab author, rate the tab!
1 2 3 4 5
comments
print report bad tab
guest
You may want to rate the tab now too:
select rating
Wanna post a correction for this tab? Suggest correction