Oops, an error
Loading. Please wait.

Flush Tab

version 2
version 2

Whole song

Interactive

3,861 views 1 this week
no commentswrite comment
1 2 3 4 5
please rate
add to favorites
launch autoscroll
font size
0
reset
how to read this tab
guitar tuner
Autoscroll
slow
fast
+/-
esc
set tempo
stop
Help us to improve Ultimate-Guitar.com Take our survey!
×
Author
 Artist:Brian Head Welch
 Song:Flush
 Album:Save Me From Myself
 Tabbed By:Head18902
 Tuning:ADGCFad--7 string version of the song

 Legend:%-Rest  =-Tremolo Pick
 Effects:Distortion, Reverb, Flanger or phaser (Your Choice)

 Note: I know he doesn't use a 7 string on his album
       but it works on either 6 or 7 string guitars.

Verse 4x
d|--------------------------------|
a|--------------------------------|
F|--------------------------------|
C|--------------------------------|
G|-----3------%-----3-------------|
D|-----3------------3-------------|
A|-1-1---1-1----1-1---1-1--0-1--2-|

Pre-Chours/Ryhthm Guitar 2x
d|--------------------------------|
a|--------------------------------|
F|--------------------------------|
C|--------------------------------|
G|-----3------%-----3-------------|
D|-----3------------3-------------|
A|-1-1---1-1----1-1---1-1--0-1--2-|


 pre-Chours/Lead Guitar (with Reverb) 2x
d|---15-16-15---15---------15-16------------|
a|-13---------13--13-16--13-----13-16-13-15-|
F|------------------------------------------|
C|------------------------------------------|
G|------------------------------------------|
D|------------------------------------------|
A|------------------------------------------|

 Chours/Ryhthm Guitar (Life Is Bouring)
d|--------------------------------------|
a|--------------------------------------|
F|--------------------------------------|
C|--------------------------------------|
G|-88888888-66666666-4444444-8888-------|
D|-88888888-66666666-4444444-6666-33-77-|
A|-66666666-44444444-2222222------11-55-|

 Chours/Lead Guitar
d|--------------------------------------|
a|--------------------------------------|
F|-10-----------------------------------|
C|--------------------------------------|
G|-8------------------------------------|
D|--------------------------------------|
A|--------------------------------------|
   =

 Chours/Ryhthm Guitar
d|--------------------------------------|
a|--------------------------------------|
F|--------------------------------------|
C|--------------------------------------|
G|-88888888-66666666-4444444-8888-------|
D|-88888888-66666666-4444444-6666-33-77-|
A|-66666666-44444444-2222222------11-55-|

 Chours/Lead Guitar
d|--------------------------------------|
a|--------------------------------------|
F|--10--17--12---15--13---12--10---9----|
C|--------------------------------------|
G|---8--15--10---13--11---10---8---7----|
D|--------------------------------------|
A|--------------------------------------|
    =   =   =    =   =    =   =    =

 Pre-Verse/Ryhthm Guitar
d|-------------------------------|
a|-------------------------------|
F|-------------------------------|
C|-------------------------------|
G|-----3------------3------------|
D|-----3-----%------3------------|
A|-1-1----1-1---1-1---1-1-0-1--2-|

Pre-Verse/Lead Guitar (Reverb)
d|---15-16-15---15---------15-16------------|
a|-13---------13--13-16--13-----13-16-13-15-|
F|------------------------------------------|
C|------------------------------------------|
G|------------------------------------------|
D|------------------------------------------|
A|------------------------------------------|

Pre-Verse/Ryhthm Guitar
d|-------------------------------|
a|-------------------------------|
F|-------------------------------|
C|-------------------------------|
G|-----3------------3------------|
D|-----3-----%------3------------|
A|-1-1----1-1---1-1---1-1-0-1--2-|

Pre-Verse/Lead Guitar (Reverb)
d|---15-16-15---15---------15-16------------|
a|-13---------13--13-16--13-----13-16-15----|
F|------------------------------------------|
C|------------------------------------------|
G|------------------------------------------|
D|------------------------------------------|
A|------------------------------------------|

 Verse 4x
d|--------------------------------|
a|--------------------------------|
F|--------------------------------|
C|--------------------------------|
G|-----3------%-----3-------------|
D|-----3------------3-------------|
A|-1-1---1-1----1-1---1-1--0-1--2-|


Pre-Chours/Ryhthm Guitar 2x
d|--------------------------------|
a|--------------------------------|
F|--------------------------------|
C|--------------------------------|
G|-----3------%-----3-------------|
D|-----3------------3-------------|
A|-1-1---1-1----1-1---1-1--0-1--2-|


 pre-Chours/Lead Guitar (with Reverb) 2x
d|---15-16-15---15---------15-16------------|
a|-13---------13--13-16--13-----13-16-13-15-|
F|------------------------------------------|
C|------------------------------------------|
G|------------------------------------------|
D|------------------------------------------|
A|------------------------------------------|


 Chours/Ryhthm Guitar (Life Is Bouring)
d|--------------------------------------|
a|--------------------------------------|
F|--------------------------------------|
C|--------------------------------------|
G|-88888888-66666666-4444444-8888-------|
D|-88888888-66666666-4444444-6666-33-77-|
A|-66666666-44444444-2222222------11-55-|

 Chours/Lead Guitar
d|--------------------------------------|
a|--------------------------------------|
F|-10-----------------------------------|
C|--------------------------------------|
G|-8------------------------------------|
D|--------------------------------------|
A|--------------------------------------|
   =

 Chours/Ryhthm Guitar
d|--------------------------------------|
a|--------------------------------------|
F|--------------------------------------|
C|--------------------------------------|
G|-88888888-66666666-4444444-8888-------|
D|-88888888-66666666-4444444-6666-33-77-|
A|-66666666-44444444-2222222------11-55-|

 Chours/Lead Guitar
d|--------------------------------------|
a|--------------------------------------|
F|--10--17--12---15--13---12--10---9----|
C|--------------------------------------|
G|---8--15--10---13--11---10---8---7----|
D|--------------------------------------|
A|--------------------------------------|
    =   =   =    =   =    =   =    =

 Bridge 1/Ryhthm Guitar 2x
d|----------------------------------------------------|
a|----------------------------------------------------|
F|----------------------------------------------------|
C|----------------------------------------------------|
G|-3-------------------------3------------------------|
D|-3-------------------3-----3------------------3--4--|
A|-1---------------1-2----2--1-------------1--2-------|

 Bridge 1/Lead Guitar (With Flanger) 2x
d|----13-12---12-------13------13-12------------15-16-|
a|-13------13-----13-14--14-13-------13-13-13-14------|
F|----------------------------------------------------|
C|----------------------------------------------------|
G|----------------------------------------------------|
D|----------------------------------------------------|
A|----------------------------------------------------|

 Bridge 2/Ryhthm Guitar
d|---------------------------------------------------------|
a|---------------------------------------------------------|
F|---------------------------------------------------------|
C|---------------------------------------------------------|
G|-4----------------6------------4-------------------------|
D|-4----------------6------------4-------------------------|
A|-2----------------4------------2---------------5--4--3--2|

 Bridge 2/Lead Guitar (With Flanger)
d|----16-15---13---16-15-18-16--15-16-15-16----------------|
a|-16------16-------------------------------16--18-17-16-15|
F|---------------------------------------------------------|
C|---------------------------------------------------------|
G|---------------------------------------------------------|
D|---------------------------------------------------------|
A|---------------------------------------------------------|

 Bridge 3/Ryhthm Guitar
d|------------------------------------------------------|
a|------------------------------------------------------|
F|------------------------------------------------------|
C|------------------------------------------------------|
G|-3--------------------------3-------------------------|
D|-3------------------3-------3-------------------3--4--|
A|-1------------1--2-----2----1--------------1--2-------|

 Bridge 3/Lead Guitar (With Flanger)
d|-------------------------------------------------------|
a|--------11------13----11------------11------13----11---|
F|-9-10-9---9--10----10----10--9-10-9---9--10----10------|
C|-------------------------------------------------------|
G|-------------------------------------------------------|
D|-------------------------------------------------------|
A|-------------------------------------------------------|


 Bridge 1/Ryhthm Guitar 2x
d|----------------------------------------------------|
a|----------------------------------------------------|
F|----------------------------------------------------|
C|----------------------------------------------------|
G|-3-------------------------3------------------------|
D|-3-------------------3-----3------------------3--4--|
A|-1---------------1-2----2--1-------------1--2-------|

 Bridge 1/Lead Guitar (With Flanger) 2x
d|----13-12---12-------13------13-12------------15-16-|
a|-13------13-----13-14--14-13-------13-13-13-14------|
F|----------------------------------------------------|
C|----------------------------------------------------|
G|----------------------------------------------------|
D|----------------------------------------------------|
A|----------------------------------------------------|


 Bridge 2/Ryhthm Guitar
d|---------------------------------------------------------|
a|---------------------------------------------------------|
F|---------------------------------------------------------|
C|---------------------------------------------------------|
G|-4----------------6------------4-------------------------|
D|-4----------------6------------4-------------------------|
A|-2----------------4------------2---------------5--4--3--2|

 Bridge 2/Lead Guitar (With Flanger)
d|----16-15---13---16-15-18-16--15-16-15-16----------------|
a|-16------16-------------------------------16--18-17-16-15|
F|---------------------------------------------------------|
C|---------------------------------------------------------|
G|---------------------------------------------------------|
D|---------------------------------------------------------|
A|---------------------------------------------------------|

Bridge 3/Ryhthm Guitar
d|------------------------------------------------------|
a|------------------------------------------------------|
F|------------------------------------------------------|
C|------------------------------------------------------|
G|-3--------------------------3-------------------------|
D|-3------------------3-------3-------------------3--4--|
A|-1------------1--2-----2----1--------------1--2-------|

 Bridge 3/Lead Guitar (With Flanger)
d|-------------------------------------------------------|
a|--------11------13----11------------11------13----11---|
F|-9-10-9---9--10----10----10--9-10-9---9--10----10------|
C|-------------------------------------------------------|
G|-------------------------------------------------------|
D|-------------------------------------------------------|
A|-------------------------------------------------------|


 Bridge 1/Ryhthm Guitar 2x
d|----------------------------------------------------|
a|----------------------------------------------------|
F|----------------------------------------------------|
C|----------------------------------------------------|
G|-3-------------------------3------------------------|
D|-3-------------------3-----3------------------3--4--|
A|-1---------------1-2----2--1-------------1--2-------|

 Bridge 1/Lead Guitar (With Flanger) 2x
d|----13-12---12-------13------13-12------------15-16-|
a|-13------13-----13-14--14-13-------13-13-13-14------|
F|----------------------------------------------------|
C|----------------------------------------------------|
G|----------------------------------------------------|
D|----------------------------------------------------|
A|----------------------------------------------------|


 Bridge 2/Ryhthm Guitar
d|---------------------------------------------------------|
a|---------------------------------------------------------|
F|---------------------------------------------------------|
C|---------------------------------------------------------|
G|-4----------------6------------4-------------------------|
D|-4----------------6------------4-------------------------|
A|-2----------------4------------2---------------5--4--3--2|

 Bridge 2/Lead Guitar (With Flanger)
d|----16-15---13---16-15-18-16--15-16-15-16----------------|
a|-16------16-------------------------------16--18-17-16-15|
F|---------------------------------------------------------|
C|---------------------------------------------------------|
G|---------------------------------------------------------|
D|---------------------------------------------------------|
A|---------------------------------------------------------|


Bridge 3/Ryhthm Guitar
d|------------------------------------------------------|
a|------------------------------------------------------|
F|------------------------------------------------------|
C|------------------------------------------------------|
G|-3--------------------------3-------------------------|
D|-3------------------3-------3-------------------3--4--|
A|-1------------1--2-----2----1--------------1--2-------|

 Bridge 3/Lead Guitar (With Flanger)
d|-------------------------------------------------------|
a|--------11------13----11------------11------13----11---|
F|-9-10-9---9--10----10----10--9-10-9---9--10----10------|
C|-------------------------------------------------------|
G|-------------------------------------------------------|
D|-------------------------------------------------------|
A|-------------------------------------------------------|

 Post-Bridge 1
d|------------------------------------------------------|
a|------------------------------------------------------|
F|------------------------------------------------------|
C|------------------------------------------------------|
G|-3--------------------------3-------------------------|
D|-3------------------3-------3-------------------3--4--|
A|-1------------1--2-----2----1--------------1--2-------|

 Post-Bridge 2 2x
d|--------------------------------|
a|--------------------------------|
F|--------------------------------|
C|--------------------------------|
G|-----3------%-----3-------------|
D|-----3------------3-------------|
A|-1-1---1-1----1-1---1-1--0-1--2-|


 Chours/Ryhthm Guitar (Life Is Bouring)
d|--------------------------------------|
a|--------------------------------------|
F|--------------------------------------|
C|--------------------------------------|
G|-88888888-66666666-4444444-8888-------|
D|-88888888-66666666-4444444-6666-33-77-|
A|-66666666-44444444-2222222------11-55-|

 Chours/Lead Guitar
d|--------------------------------------|
a|--------------------------------------|
F|-10-----------------------------------|
C|--------------------------------------|
G|-8------------------------------------|
D|--------------------------------------|
A|--------------------------------------|
   =

 Chours/Ryhthm Guitar
d|--------------------------------------|
a|--------------------------------------|
F|--------------------------------------|
C|--------------------------------------|
G|-88888888-66666666-4444444-8888-------|
D|-88888888-66666666-4444444-6666-33-77-|
A|-66666666-44444444-2222222------11-55-|

 Chours/Lead Guitar
d|--------------------------------------|
a|--------------------------------------|
F|--10--17--12---15--13---12--10---9----|
C|--------------------------------------|
G|---8--15--10---13--11---10---8---7----|
D|--------------------------------------|
A|--------------------------------------|
    =   =   =    =   =    =   =    =

 Outro/Ryhthm Guitar 2x
d|--------------------------------------|
a|--------------------------------------|
F|--------------------------------------|
C|--------------------------------------|
G|-88888888-66666666-4444444-8888-------|
D|-88888888-66666666-4444444-6666-33-77-|
A|-66666666-44444444-2222222------11-55-|

 Outro/Lead Guitar 2x
d|------------------------------------------|
a|------------------------------------------|
F|-10--12-13-12--13-15-13--15-17-15-13-12-9-|
C|------------------------------------------|
G|--8--10-11-10--11-13-11--13-15-13-11-10-7-|
D|------------------------------------------|
A|------------------------------------------|
    =  =  =  =   =  =  =   =  =  =  =  =  =

Listen to timing and you should do just fine with this song.
Suggest correction
What's this?
You can suggest a correction to this tab. Community and Mods will review your correction and vote to approve or reject it.
comments
We did not receive enough feedback on this tab! Please rate:
print report bad tab
1 2 3 4 5
guest
You may want to rate the tab now too:
select rating
Please do not post tabs as comments. Select "correction" instead!