Oops, an error
Loading. Please wait.

We Will Drive Chords

4 views 1 this week
no commentswrite comment
1 2 3 4 5
2 more votes to show rating
add to favorites
launch autoscroll
font size
0
reset
transpose
0
reset
display chords
guitar tuner
Autoscroll
slow
fast
+/-
esc
set tempo
stop
Help us to improve Ultimate-Guitar.com Take our survey!
×
Author
Difficulty
novice
About this tab version
This is the only version. Was this info helpful? Yes No
[Intro]
  G          D          C          G          G          D          C          G
e|3-3-5---3-|2---------|----------|----------|3-3-5---7-|5-3-2-----|----------|3---------|
B|----------|--5-3---3-|-5-3-3----|3---------|----------|--------3-|-5-3-3--5-|----------|
G|----------|----------|--------4-|----------|----------|----------|----------|----------|
D|----------|----------|----------|----------|----------|----------|----------|----------|
A|----------|----------|----------|----------|----------|----------|----------|----------|
E|----------|----------|----------|----------|----------|----------|----------|----------|

[Verse 1]
G                   D
Headlights pass the window,
       C               G
As I'm driving home at night.
G            D
Outside it's dark and in,
   C                    G
My mind you're the only light.
   G                       D
To have you sitting here beside me,
      C                 G
Would mean the world, I know.
    G             D
But until then, I guess,
                  C                G
I'll just have to drive home on my own.

[Chorus]
Bb                 F                G          G
Driving down these country roads at night,
Bb                   F                  G
Coming back from the only place I feel alive,
Bb           C                  G
How I wish I had you here by my side,
Bb               C                  D
Cause I need someone like you in my life.

[Break]
  G          D          C          G          G          D          C          G
e|3-3-5---3-|2---------|----------|----------|3-3-5---7-|5-3-2-----|----------|3---------|
B|----------|--5-3---3-|-5-3-3----|3---------|----------|--------3-|-5-3-3--5-|----------|
G|----------|----------|--------4-|----------|----------|----------|----------|----------|
D|----------|----------|----------|----------|----------|----------|----------|----------|
A|----------|----------|----------|----------|----------|----------|----------|----------|
E|----------|----------|----------|----------|----------|----------|----------|----------|

[Verse 2]
G                 D
Home is where the heart is,
      C                     G
Or at least thats what they say.
G           D
But since I met you,
        C                    G
Home is just a place where I stay.
  G                D
I see you in my reflection,
        C                G
I don't wanna be alone tonight.
G               D
Ripping out the pages,
     C               G
This time I'll do it right.

[Chorus]
Bb                 F                G          G
Driving down these country roads at night,
Bb                   F                  G
Coming back from the only place I feel alive,
Bb           C                  G
How I wish I had you here by my side,
Bb               C                  D
Cause I need someone like you in my life.

[Solo]
G      D      C      G
G      D      C      G
G      D      C      G
G      D      C      G

Bb     F      G      G
Bb     F      G      G
Bb     C      G      G
Bb     C      D      
G
Suggest correction
Give kudos to tab author, rate the tab!
1 2 3 4 5
comments
print report bad tab
guest
You may want to rate the tab now too:
select rating
Wanna post a correction for this tab? Suggest correction