Oops, an error
Loading. Please wait.

Samanthas Lullaby Tab

130 views 3 this week
no commentswrite comment
1 2 3 4 5
3 more votes to show rating
add to favorites
launch autoscroll
font size
0
reset
how to read this tab
guitar tuner
Autoscroll
slow
fast
+/-
esc
set tempo
stop
Help us to improve Ultimate-Guitar.com Take our survey!
×
Author
Difficulty
intermediate
About this tab version
Different parts are explained clearly. Was this info helpful? Yes No
This tab is based off of the "Samantha's Lullaby (Magic Mix)" composed by Brian Tuey, included In the
Call of Duty: Black Ops 3 Soundtrack. 

[Part 1]
This part is played 11 times through with the other parts playing over it at
specific times
e|----------1--3-----1--3---------------1--3-----1--3------------------------|
B|-------3--------3------------------3--------3------------------------------|
G|----2---------------------------2------------------------------------------|
D|-0---------------------------0---------------------------------------------|
A|---------------------------------------------------------------------------|
E|---------------------------------------------------------------------------|

e|----------1--3-----1--3---------------1--3--1--3---------------------------|
B|-------3--------3------------------3---------------------------------------|
G|----2---------------------------2------------------------------------------|
D|-0---------------------------0---------------------------------------------| 
A|---------------------------------------------------------------------------|
E|---------------------------------------------------------------------------|

[Part 2]
The second guitar plays this on the 2nd and 3rd time part 1 is played
e|-5-----6--5-----------5--5-----6--5-----------3--1--0--1-------------------|
B|----6--------6--------------6--------6--------------------3----------------|
G|---------------------------------------------------------------------------|
D|---------------------------------------------------------------------------|
A|---------------------------------------------------------------------------|
E|---------------------------------------------------------------------------|

e|-0--0--1--0--1-------------------------------------------------------------|
B|----------------3----------------------------------------------------------|
G|---------------------------------------------------------------------------|
D|---------------------------------------------------------------------------| 
A|---------------------------------------------------------------------------|
E|---------------------------------------------------------------------------|

[Part 3]
This part is played by the second guitar from the 8th to the beginning of the
10th time part 1 is played
e|----0--1------0--1--3--0--0--1--3--5--3--5--3--0---------------------------|
B|-3---------3---------------------------------------------------------------|
G|---------------------------------------------------------------------------|
D|---------------------------------------------------------------------------|
A|---------------------------------------------------------------------------|
E|---------------------------------------------------------------------------|

e|----0--1------0--1---------------------------------------------------------|
B|-3---------3---------3-----1------0----------------------------------------|
G|----------------------------------------0----------------------------------|
D|----------------------------------------------3----------------------------|
A|---------------------------------------------------------------------------|
E|---------------------------------------------------------------------------|

[Part 4]
This is played halfway through the last time part 1 is played. The last
3 is not in the song but I think it gives it a nicer ending.
e|-3--1--0------1--0---------------------------------------------------------|
B|--------------------3---1---3----------------------------------------------|
G|---------------------------------------------------------------------------|
D|---------------------------------------------------------------------------|
A|---------------------------------------------------------------------------|
E|---------------------------------------------------------------------------|
Suggest correction
Give kudos to tab author, rate the tab!
1 2 3 4 5
comments
print report bad tab
guest
You may want to rate the tab now too:
select rating
Wanna post a correction for this tab? Suggest correction