Oops, an error
Loading. Please wait.

Mustang Nismo tab

version 3
version 3

Whole song

Interactive

13,001 views 1 this week
no commentswrite comment
1 2 3 4 5
x 3
add to favorites
×
Save as Personal and add changes to this tab that will be seen only by you. Learn more ›
×
You can save this tab as Personal to edit and correct it or add notes. All changes will be seen only by you. Learn more »
launch autoscroll
font size
0
reset
how to read this tab
guitar tuner
edit
Autoscroll
slow
fast
+/-
esc
set tempo
stop
Author
Difficulty
I've pretty much got most of it except for the solo, which i am not even close enough to
pump up the bass and gain on this song. i play mine in dropped D tuning, if any of
have a backing track of some sort, i'd love it if you could contact me. this is 100% 
by ear, no outside referrals or anything. just that my procrastination led to two other
submitting their tab first. bleah. so far i think this is the only one in dropped D. try 
others, choose the best and most unique one. i'm totally not influencing your decision 
any way.

Right, the tab.. its not much, but; let me plop down the template right here:

-------------------------------------------------------------------------------
                   Mustang Nismo - Brian Tyler feat. Slash
-------------------------------------------------------------------------------
Tabbed by:AfroToast
Email:insomnia.1014@gmail.com

Tuning:Dropped D (EBGDAD)
INTRO RIFF
e|---------------------------------------------------------------------------|
B|---------------------------------------------------------------------------|
G|---------------------------------------------------------------------------|
D|-2-2-5-2-----2-2-5-2-X-X-2~5-----2-2-5-2-----2-2-5-2-X-X-5-7---------------|
A|-2-2-5-2-----2-2-5-2-X-X-2~5-----2-2-5-2-----2-2-5-2-X-X-5-7---------------|
D|-2-2-5-2-----2-2-5-2-X-X-2~5-----2-2-5-2-----2-2-5-2-X-X-5-7---------------|

e|---------------------------------------------------------------------------|
B|---------------------------------------------------------------------------|
G|---------------------------------------------------------------------------|
D|-2-2-5-2-----2-2-5-2-X-X-2-5-----2-2-5-2-----2-2-5-2-X-X-7--5--------------|
A|-2-2-5-2-----2-2-5-2-X-X-2-5-----2-2-5-2-----2-2-5-2-X-X-7--5--------------|
D|-2-2-5-2-----2-2-5-2-X-X-2-5-----2-2-5-2-----2-2-5-2-X-X-7--5--------------|
VERSE RIFF
e|-----------------------------------------------------------------------------|
B|-----------------------------------------------------------------------------|
G|-----------------------------------------------------------------------------|
D|-2-2-5-2-X-X-2-X-X-2-----2-2-5-2-X-X-2-5-X-X---------------------------------|
A|-2-2-5-2-X-X-2-X-X-2-----2-2-5-2-X-X-2-5-X-X--repeat according to song-------|
D|-2-2-5-2-X-X-2-X-X-2-----2-2-5-2-X-X-2-5-X-X---------------------------------|
BREAKDOWN RIFF(Play around with the rythm, follow the song with these chords)
e|-----------------------------------------------------------------------------|
B|--------------PALM-MUTE AS NECESSARY-----------------------------------------|
G|-----------------------------------------------------------------------------|
D|0-2-0-2-0-2-------0-2-0-2-0-2-------0-2-0-2-0-2------------------------------|
A|0-2-0-2-0-2-------0-2-0-2-0-2-------0-2-0-2-0-2------------------------------|
D|0-2-0-2-0-2-------0-2-0-2-0-2-------0-2-0-2-0-2------------------------------|

| /  slide up
| \  slide down
| h  hammer-on
| p  pull-off
| ~  vibrato
| +  harmonic
| x  Mute note
===============================================================================


they usually add one of these to the bottom, so:

Questions? Comments? e-mail me at insomnia.1014@gmail.com

            
            
Suggest correction
Creating personal tab
Creating personal tab
You can edit any tab online and save it as your Personal.

You can edit, replace or remove any tab part or add personal notes – all changes will be seen only by you.

Personal tabs can be accessed anytime from any device, even offline.
Learn more »
Give kudos to tab author, rate the tab!
1 2 3 4 5
comments
print report bad tab
guest
You may want to rate the tab now too:
select rating
Wanna post a correction for this tab? Suggest correction