Oops, an error
Loading. Please wait.

Baby Let Your Hair Grow Long Bass Tab

25 views 1 this week
no commentswrite comment
1 2 3 4 5
3 more votes to show rating
add to favorites
launch autoscroll
font size
0
reset
guitar tuner
Autoscroll
slow
fast
+/-
esc
set tempo
stop
Help us to improve Ultimate-Guitar.com Take our survey!
×
Author
Difficulty
novice
Tuning :

G
D
A
D# (Eb)


[Verse 1]

G |----------------|----------------|----------------|----------------| (x2)
D |----------------|----------------|----------------|----------------|
A |----3-4----3-4--|----3-4----3-4--|----3-4----3-4--|----3-4----3-4--|
D#|--5------5------|--5-----5-------|--5------5------|--5-----5-------|


[Pre-Chorus]

G |--------------|-------------|-------------|-------------|
D |--------------|-------------|-------------|-------------|
A |--4---4-1---1-|-------------|-4---4-1---1-|-------------|
D#|--------------|-3---3-5---5-|-------------|-3---3-5---5-|


[Chorus]

G |-------------|--------------|--------------|--------------|--------------|
D |-------------|--------------|--------------|--3--3--3--3--|--------------|
A |-4--4--2--2--|--1--1--0--0--|--------1--1--|--------------|--1--1--1--1--|
D#|-------------|--------------|--5--5--------|--------------|--------------|


[Verse 2]

G |----------------|----------------|----------------|----------------| (x2)
D |----------------|----------------|----------------|----------------|
A |----3-4----3-4--|----3-4----3-4--|----3-4----3-4--|----3-4----3-4--|
D#|--5------5------|--5-----5-------|--5------5------|--5-----5-------|


[Pre-Chorus]

G |--------------|-------------|-------------|-------------|
D |--------------|-------------|-------------|-------------|
A |--4---4-1---1-|-------------|-4---4-1---1-|-------------|
D#|--------------|-3---3-5---5-|-------------|-3---3-5---5-|


[Chorus]

G |-------------|--------------|-------------|--------------|--------------|
D |-------------|--------------|-------------|--3--3--3--3--|--------------|
A |-4--4--2--2--|--1--1--0--0--|--------1----|--------------|--1--1--1--1--|
D#|-------------|--------------|--5--5-------|--------------|--------------|


G |--------------|----------------|
D |--------------|----------------|
A |--------------|-4--------------|
D#|--3---3-5---5-|----------------|


[Bridge]

G |----------------|----------------|----------------|----------------|
D |----------------|----------------|----------------|----------------|
A |----------------|----------------|-4--------------|----------------|
D#|----------------|-----------5--5-|----------------|-----------5--5-|


G |-------------|-------------|-------------|-------------|
D |-------------|-------------|-------------|-------------|
A |-4---4-3---3-|-1---1-------|-4---4-3---3-|-1---1-------|
D#|-------------|-------5---5-|-------------|-------5---5-|


G |-------------|-------------|
D |-------------|-------------|
A |-3---3-------|-1---1-------|
D#|-------2---2-|-------0---0-|


[Verse 3]

G |---------------|----------------|----------------|----------------| (x2)
D |---------------|----------------|----------------|----------------|
A |---3-4----3-4--|----3-4----3-4--|----3-4----3-4--|----3-4----3-4--|
D#|-5------5------|--5-----5-------|--5------5------|--5-----5-------|


[Pre-Chorus]

G |--------------|-------------|-------------|-------------|
D |--------------|-------------|-------------|-------------|
A |--4---4-1---1-|-------------|-4---4-1---1-|-------------|
D#|--------------|-3---3-5---5-|-------------|-3---3-5---5-|


[Chorus]

G |-------------|--------------|--------------|--------------|--------------|
D |-------------|--------------|--------------|--3--3--3--3--|--------------|
A |-4--4--2--2--|--1--1--0--0--|--------1--1--|--------------|--1--1--1--1--|
D#|-------------|--------------|--5--5--------|--------------|--------------|


[Outro] (repeat until the end)

G |----------------|----------------|----------------|----------------| 
D |----------------|----------------|----------------|----------------|
A |----3-4----3-4--|----3-4----3-4--|----3-4----3-4--|----3-4----3-4--|
D#|--5------5------|--5-----5-------|--5------5------|--5-----5-------|



************************

in regular sequence!

************************
Suggest correction
Give kudos to tab author, rate the tab!
1 2 3 4 5
comments
print report bad tab
guest
You may want to rate the tab now too:
select rating
Wanna post a correction for this tab? Suggest correction