Oops, an error
Loading. Please wait.

Little Children Bass Tab

10 views 1 this week
no commentswrite comment
1 2 3 4 5
3 more votes to show rating
add to favorites
launch autoscroll
font size
0
reset
guitar tuner
Autoscroll
slow
fast
+/-
esc
set tempo
stop
Help us to improve Ultimate-Guitar.com Take our survey!
×
Author
Difficulty
novice
[Main Riff]

G|--------------|--------------|--------------|--------------| (x2)
D|--------------|--------------|--------------|--------------|
A|--------------|--1--1--------|--------------|--3--3--------|
E|--1--1--1--1--|--------1--1--|--1--1--1--1--|--------1--1--|


[Bridge]

G|--------------|--------------|--------------|--------------|
D|--------------|--------------|--------------|--------------|
A|--5--5--5--5--|--------------|--------3--3--|--------------|
E|--------------|--5--5--5--5--|--3--3--------|--1--1--1--1--|


G|--------------|--------------|--------------|--------------|
D|--------------|--------------|--------------|--------------|
A|--5--5--5--5--|--------------|--------------|--3--3--3--3--|
E|--------------|--5--5--5--5--|--3--3--3--3--|--------------|


[Main Riff]

G|--------------|--------------|--------------|--------------| (x2)
D|--------------|--------------|--------------|--------------|
A|--------------|--1--1--------|--------------|--3--3--------|
E|--1--1--1--1--|--------1--1--|--1--1--1--1--|--------1--1--|


[Bridge]

G|--------------|--------------|--------------|--------------|
D|--------------|--------------|--------------|--------------|
A|--5--5--5--5--|--------------|--------3--3--|--------------|
E|--------------|--5--5--5--5--|--3--3--------|--1--1--1--1--|


G|--------------|--------------|--------------|--------------|
D|--------------|--------------|--------------|--------------|
A|--5--5--5--5--|--------------|--------------|--3--3--3--3--|
E|--------------|--5--5--5--5--|--3--3--3--3--|--------------|


[Main riff]

G|--------------|--------------|--------------|--------------| (x4)
D|--------------|--------------|--------------|--------------|
A|--------------|--1--1--------|--------------|--3--3--------|
E|--1--1--1--1--|--------1--1--|--1--1--1--1--|--------1--1--|


[Outro] (repeat until the end)

G|--------------|--------------|--------------|--------------|
D|--------------|--------------|--------------|--------------|
A|--3--3--------|--3--3--------|--3--3--------|--3--3--------|
E|--------1--1--|--------1--1--|--------1--1--|--------1--1--|



**************************

in regular sequence!

**************************
Suggest correction
Give kudos to tab author, rate the tab!
1 2 3 4 5
comments
print report bad tab
guest
You may want to rate the tab now too:
select rating
Wanna post a correction for this tab? Suggest correction